Eyehategod

Unknown Song From 1994

Eyehategod

tabs

by  VICTBORGES

save to print version add songbook text version e-mail correct tuner
chordsukulelecavacokeyboardtabbassdrumsharmonicaflute Guitar Pro
close

there isn't a video lesson for this song

chords

Unknown Song From 1994

	  		
D|---------------------------------------------------------------| 
A|---------------------------------------------------------------| 
F|---------------------------------------------------------------| 
C|---------------------------------------------------------------| 
G|-9-8-7-0-0-0-0-0-7-8-9-----------------------------------------| 
C|-7-6-5-0-0-0-0-0-5-6-7-----------------------------------------| 

D|---------------------------------------------------------------| 
A|---------------------------------------------------------------| 
F|---------------------------------------------------------------| 
C|---------------------------------------------------------------| 
G|-9-8-7-0-0-0-0-0-7-8-9-----------------------------------------| 
C|-7-6-5-0-0-0-0-0-5-6-7-----------------------------------------| 

D|---------------------------------------------------------------| 
A|---------------------------------------------------------------| 
F|---------------------------------------------------------------| 
C|---------------------------------------------------------------| 
G|-9-8-7-0-0-0-0-0-7-8-9-----------------------------------------| 
C|-7-6-5-0-0-0-0-0-5-6-7-----------------------------------------| 

D|---------------------------------------------------------------| 
A|---------------------------------------------------------------| 
F|---------------------------------------------------------------| 
C|---------------------------------------------------------------| 
G|-9-8-7-0-0-0-0-0-7-8-9-----------------------------------------| 
C|-7-6-5-0-0-0-0-0-5-6-7-----------------------------------------| 

D|---------------------------------------------------------------| 
A|---------------------------------------------------------------| 
F|---------------------------------------------------------------| 
C|-------------------9-8-7-9-8-7-9-8-----------------------------| 
G|---------4-4-4-4-4-9-8-7-9-8-7-9-8-----------------------------| 
C|-1-1-1-1-2-2-2-2-2-9-8-7-9-8-7-9-8-----------------------------| 

D|---------------------------------------------------------------| 
A|---------------------------------------------------------------| 
F|---------------------------------------------------------------| 
C|---------------------------------------------------------------| 
G|-9-8-7-0-0-0-0-0-7-8-9-----------------------------------------| 
C|-7-6-5-0-0-0-0-0-5-6-7-----------------------------------------| 

D|---------------------------------------------------------------| 
A|---------------------------------------------------------------| 
F|---------------------------------------------------------------| 
C|---------------------------------------------------------------| 
G|-9-8-7-0-0-0-0-0-7-8-9-----------------------------------------| 
C|-7-6-5-0-0-0-0-0-5-6-7-----------------------------------------| 

D|---------------------------------------------------------------| 
A|---------------------------------------------------------------| 
F|---------------------------------------------------------------| 
C|---------------------------------------------------------------| 
G|-9-8-7-0-0-0-0-0-7-8-9-----------------------------------------| 
C|-7-6-5-0-0-0-0-0-5-6-7-----------------------------------------| 

D|---------------------------------------------------------------| 
A|---------------------------------------------------------------| 
F|---------------------------------------------------------------| 
C|---------------------------------------------------------------| 
G|-6-5-6-5-6-5-10-10-10-10-10-10---------------------------------| 
C|-4-3-4-3-4-3-8-8-8-8-8-8-8-8-----------------------------------| 

D|---------------------------------------------------------------| 
A|---------------------------------------------------------------| 
F|---------------------------------------------------------------| 
C|---------------------------------------------------------------| 
G|-6-5-6-5-6-5-10-10-10-10-10-10---------------------------------| 
C|-4-3-4-3-4-3-8-8-8-8-8-8-8-8-----------------------------------| 

D|---------------------------------------------------------------| 
A|---------------------------------------------------------------| 
F|---------------------------------------------------------------| 
C|---------------------------------------------------------------| 
G|-6-5-6-5-6-5-10-10-10-10-10-10---------------------------------| 
C|-4-3-4-3-4-3-8-8-8-8-8-8-8-8-----------------------------------| 

D|---------------------------------------------------------------| 
A|---------------------------------------------------------------| 
F|---------------------------------------------------------------| 
C|---------------------------------------------------------------| 
G|-6-5-6-5-6-5-10-10-10-10-10-10---------------------------------| 
C|-4-3-4-3-4-3-8-8-8-8-8-8-8-8-----------------------------------| 
		  

See also:

tabs Deep Purple - Smoke On The Water (Intermediate Intro) tabs Deep Purple - Space Truckin tabs Deep Purple - Smoke On The Water (Easy Intro) tabs Ira! - Prisão das Ruas tabs Doa - Sexyest Girl tabs Deep Purple - Ted The Mechanic
e-chords

Other versions:

tabs Eyehategod - Unknown Song From 1994
auto scroll beats size up size down change color hide chords drawings
tab show chords e-chords YouTube Clip e-chords hide all tabs e-chords go to top tab

share