Eyehategod

Medicine Noose

Eyehategod

tabs

by  EDUCASTILHO

save to print version add songbook text version e-mail correct tuner
chordsukulelecavacokeyboardtabbassdrumsharmonicaflute Guitar Pro
close

there isn't a video lesson for this song

chords

Medicine Noose

	  		Intro 
C |---------------| 
G |---------------| 
D#|---------------| 
A#|-------2----2--| 
F |-------2----2--| 
C |-12\0--0----0--| 
                                                          

Riff 1 
C |--------------------------------------------| 
G |--------------------------------------------| 
D#|--------------------------------------------| 
A#|--------------------------------------------| 
F |------------------------/9--9--8--7--4---4--| 
C |--0/4--4--5-4-5-4-/-7---/7--7--6--5--2---2--| 
       ^  ~            ~                     

Riff 2 
C |--------------------------------------------| 
G |--------------------------------------------| 
D#|--------------------------------------------| 
A#|--------------------------------------------| 
F |------------------------/9-9-9-8--7--4---4--| 
C |--2/4--4--5-4-5-4-/-7---/7-7-7-6--5--2---2--|                      

Riff 3 
C |-----------------------|------------------------------| 
G |-----------------------|------------------------------| 
D#|-----------------------|------------------------------| 
A#|-----------------------|------------------------------| 
F |-----------------------|---/9-9--7-6-5----------------| 
C |--2/4--4--5-4-5-4-/-7--|---/7-7--------7-6-5-6--5--2--| 
       ^  ~            ~                        ~     ~                  

Riff 4 
C |----------------------------------------------------------------| 
G |----------------------------------------------------------------| 
D#|----------------------------------------------------------------| 
A#|---------------------------------9\7----------------------------| 
F |-9--(9)--------------------------7\5---7--7-/-9-(9)-------------| 
C |-7--(7)------------------------------0-5--5-/-7-(7)-------------| 
        x                               * p          x  

Riff 5 
C |---------------------------| 
G |---------------------------| 
D#|---------------------------| 
A#|-9\7-----------------------| x3 
F |-7\5---7--7-/-9-(9)--------| 
C |-----0-5--5-/-7-(7)--------| 
        * p         *     

Riff 6 
C |------------------------------------------|--------------------------------------------------| 
G |------------------------------------------|--------------------------------------------------| 
D#|------------------------------------------|--------------------------------------------------| 
A#|--9\7-------------------------------------|--------------------------------------------------| 
F |--7\5---7--7-\-4-(4)--------------4-(4)---|----------------------(9)-------------------------| 
C |------0-5--5-\-2-(2)--------3-3-3-2-(2)---|----3-0-0-5-0-0-6-0-7-(7)-------------------------| 
         * p         *         p p p    *           * *   * *   *    x 

Riff 5 
C |---------------------------| 
G |---------------------------| 
D#|---------------------------| 
A#|-9\7-----------------------| x3 
F |-7\5---7--7-/-9-(9)--------| 
C |-----0-5--5-/-7-(7)--------| 
        * p         *  

Riff 7                                     
C |-------------------------------------------|--------------------------------------------| 
G |-------------------------------------------|--------------------------------------------| 
D#|-------------------------------------------|--------------------------------------------| 
A#|--9\7--------------------------------------|--------------------------------------------| 
F |--7\5---7--7-\-4-(4)--------------4-(4)----|---------------------------------3-2---/14--| 
C |------0-5--5-\-2-(2)--------3-3-3-2-(2)----|-----5-0-0-3-0-0-2-0-0-3-0-0-2-0------------| 
         * p         *         p p p    *             * *   * *   * *   * *   *        ~~     

Riff 8 
C |-----------------------|------------------------------------| 
G |-----------------------|------------------------------------| 
D#|-----------------------|------------------------------------| 
A#|------/9---9----4---4--|------------------------------------| 
F |------/9---9----4---4--|--7-5-6-5-5-3-4-3-------------------| 
C |------/7---7----2---2--|------------------5-3-4-3-3-1-2-1---| 
                             ^   ^   ^   ^   ^   ^   ^   ^ 

Riff 9 
C |-------------------|------------------------------------------------| 
G |-------------------|------------------------------------------------| 
D#|-------------------|------------------------------------------------| 
A#|---9---9----4---4--|---------------------------------------7-9-9\0--| 
F |---9---9----4---4--|--7-5-6-5-7-5-6-5-7-5-6-5-7-5-6-5--7-9----------| 
C |---7---7----2---2--|------------------------------------------------| 
                         ^   ^   ^   ^   ^   ^   ^   ^          p ~ 

Riff 8 
C |-----------------------|------------------------------------| 
G |-----------------------|------------------------------------| 
D#|-----------------------|------------------------------------| 
A#|------/9---9----4---4--|------------------------------------| 
F |------/9---9----4---4--|--7-5-6-5-5-3-4-3-------------------| 
C |------/7---7----2---2--|------------------5-3-4-3-3-1-2-1---| 
                             ^   ^   ^   ^   ^   ^   ^   ^ 

Riff 10 
C |-------------------|-------------------------------------------| 
G |-------------------|-------------------------------------------| 
D#|-------------------|-------------------------------------------| 
A#|---9---9----4---4--|-------------------------------------------| 
F |---9---9----4---4--|--7-5-6-5-7-5-6-5-7-5-6-5-7-5-6-5--7-9\0---| 
C |---7---7----2---2--|-------------------------------------------| 
                         ^   ^   ^   ^   ^   ^   ^   ^           

Outro 
C |---------------------------|---------------------------------------------------------------| 
G |---------------------------|---------------------------------------------------------------| 
D#|---------------------------|---------------------------------------------------------------| 
A#|---9---9----4---4---7---2--|---------------------------------------------------------------| 
F |---9---9----4---4---7---2--|--------------------------------3-2--/14------------------3-2--| 
C |---7---7----2---2---5---0--|--5-0-0-3-0-0-2-0-0-3-0-0-2-0-------------5-0-0-3-0-0-2-0------| 
                                   * *   * *   * *   * *   *   ~           * *   * *   *   ~ 


************************************ 

| ~   Vibrato 
| *   Palm mute 
| ^   Bend 
| /   Slide 
| p   Pull-off 
| x   Mute 

************************************ 
		  

See also:

tabs Deep Purple - Smoke On The Water (Intermediate Intro) tabs Deep Purple - Space Truckin tabs Deep Purple - Smoke On The Water (Easy Intro) tabs Ira! - Prisão das Ruas tabs Doa - Sexyest Girl tabs Deep Purple - Ted The Mechanic
e-chords

Other versions:

tabs Eyehategod - Medicine Noose
auto scroll beats size up size down change color hide chords drawings
tab show chords e-chords YouTube Clip e-chords hide all tabs e-chords go to top tab

share