Exercise

How To Play Yngwie Malmsteen Style

Exercise

tabs

by  TEUSALVES

save to print version add songbook text version e-mail correct tuner
chordsukulelecavacokeyboardtabbassdrumsharmonicaflute Guitar Pro
close

there isn't a video lesson for this song

chords

How To Play Yngwie Malmsteen Style

	  		ex 1  

|---------------------------------------16-17-19-20--|  
|------------------------------17-19-20--------------|  
|------------------13-14-16-17-----------------------|  
|---------12-14-15-----------------------------------|  
|12-14-15--------------------------------------------|  
|----------------------------------------------------|  

|20-19-17-16----------------------------------------------|  
|------------20-19-17-------------------------------------|  
|---------------------17-16-14-13-------------------------|  
|---------------------------------15-14-12----------------|  
|------------------------------------------15-14-12-11-12-|  
|---------------------------------------------------------|  

ex 2  

|17-20-19-17-16-19-17-16-------------------------------------------|  
|------------------------18-17-15----------------------------------|  
|---------------------------------17-16-14-13-14-16-14-13----------|  
|---------------------------------------------------------15-14-12-|  
|------------------------------------------------------------------|  
|------------------------------------------------------------------|  

|---------------|  
|---------------|  
|---------------|  
|---------------|  
|15-14-12-11-12-|  
|---------------|  

ex 3  

|10-13-12-13-10-13-12-13-7-10-8-10-7-10-8-10-8-12-10-12-8-12-10-12-|  
|------------------------------------------------------------------|  
|------------------------------------------------------------------|  
|------------------------------------------------------------------|  
|------------------------------------------------------------------|  
|------------------------------------------------------------------|  

|5-8-7-8-5-8-7-8-7-10-8-10-7-10-8-10-4-7-5-7-4-7-5-7-5-|  
|------------------------------------------------------|  
|------------------------------------------------------|  
|------------------------------------------------------|  
|------------------------------------------------------|  
|------------------------------------------------------|  

ex 4  

|7---------8---------10---------12---------13-|  
|--10-9-10-- 10-9-10----10-9-10----10-9-10----|  
|---------------------------------------------|  
|---------------------------------------------|  
|---------------------------------------------|  
|---------------------------------------------|  

ex 5  

|----------------12h17p12----------12h17p12------------|  
|-------------13----------13----13---------13----------|  
|----------14----------------14--------------14--------|  
|-------14-------------------------------------14------|  
|-12h15------------------------------------------15912-|  
|------------------------------------------------------|  
ex 6  

|-------8-12/17p13--------------7-10/15p12---------|  
|-----10----------15-----------5----------13-------|  
|----9--------------14--------7-------------12-----|  
|--10-----------------15-----9----------------14---|  
|12---------------------17-10-------------------15-|  
|--------------------------------------------------|  

|----5-8/13p10-------------4-7-5-|  
|---6---------12----------5------|  
|--5------------10-------4-------|  
|-7---------------12----6--------|  
|8------------------14-7---------|  
|--------------------------------|  

ex7  

|5p0---0-5/8p5---5-8/12p8-----8-12/17p12------12-17|  
|---1-1-------5-5--------10-10----------13--13-----|  
|----2---------5-----------9--------------14-------|  
|--------------------------------------------------|  
|--------------------------------------------------|  
|--------------------------------------------------|  

ex 8  

|4p1---1-4/7p4---4-7/10p7----7-10/13p10-------|  
|---3-3-------6-6--------9--9----------12--12-|  
|----4---------7----------10-------------13---|  
|---------------------------------------------|  
|---------------------------------------------|  
|---------------------------------------------|  

|-10-13/16p13----------13-16-17-|  
|-------------15----15----------|  
|----------------16-------------|  
|-------------------------------|  
|-------------------------------|  
|-------------------------------|  

ex 9  

|20-19-17-15-19-17-15-14-17-15-14-12-15-14-12-10-14-12-10-8-12-10-8|  
|------------------------------------------------------------------|  
|------------------------------------------------------------------|  
|------------------------------------------------------------------|  
|------------------------------------------------------------------|  
|------------------------------------------------------------------|  

|-10-8-7-10-8-7-5-8-7-5-------------------------|  
|-----------------------8-7-5-------------------|  
|-----------------------------7-5-4-------------|  
|-----------------------------------7-5-4-------|  
|-----------------------------------------7-6-7-|  
|-----------------------------------------------|  

ex 10  

|12-10-12-8-12-7-12-----17-15-17-13-17-12----10-8-10-7-10-5-10---|  
|-------------------10--------------------15-------------------8-|  
|----------------------------------------------------------------|  
|----------------------------------------------------------------|  
|----------------------------------------------------------------|  
|----------------------------------------------------------------|  

|15-13-15-12-15-10-15----8-7-8-5-8-3-8--|  
|---------------------13---------------6|  
|---------------------------------------|  
|---------------------------------------|  
|---------------------------------------|  
|---------------------------------------|  

|13-12-13-10-13-8-13--------------------|  
|--------------------12--10-9-10-12-9-10|  
|---------------------------------------|  
|---------------------------------------|  
|---------------------------------------|  
|---------------------------------------| 
		  

See also:

tabs Ira! - Vitrine Viva tabs Deep Purple - Black Knight tabs Deep Purple - Demonds Eye tabs Deep Purple - Smoke on the Water (ver. 2) tabs Deep Purple - Clearly Quite Absurd tabs Ira! - Envelheço na Cidade (intro)
e-chords

Other versions:

tabs Exercise - How To Play Yngwie Malmsteen Style
auto scroll beats size up size down change color hide chords drawings
tab show chords e-chords YouTube Clip e-chords hide all tabs e-chords go to top tab

share