Exercise

How To Play Marty Friedman Style

Exercise

tabs

by  TEUSALVES

save to print version add songbook text version e-mail correct tuner
chordsukulelecavacokeyboardtabbassdrumsharmonicaflute Guitar Pro
close
how-to-play-marty-friedman-style-by-exercise

there is a video lesson for this song

chords

How To Play Marty Friedman Style

	  		ex 1 (Pode ser limado) 
----------------------------------12h14-----12h14b15-12------------------------ 
-----------------------------12h13-----12h13-----------12-----11b12-------------- 
--------------9h11------9h11-----------------------------12/11--------------- 
---------9h10------9h10------------------------------------------------- 
----7h10------------------------------------------------------------- 
7h8------------------------------------------------------------------ 

ex 2 

19p15------15h19p15------15h19p15------------------------------- 
-----17--17--------17--17--------17----------------------------- 
-------16------------16------------16--------------------------- 
---------------------------------------------------------------- 
---------------------------------------------------------------- 
---------------------------------------------------------------- 

20p15------15h20p15------15h20p15------------------------------- 
-----17--17--------17--17--------17----------------------------- 
-------16------------16------------16--------------------------- 
---------------------------------------------------------------- 
---------------------------------------------------------------- 
---------------------------------------------------------------- 

21p15------15h21p15------15h21p15------------------------------- 
-----17--17--------17--17--------17----------------------------- 
-------16------------16------------16--------------------------- 
---------------------------------------------------------------- 
---------------------------------------------------------------- 
---------------------------------------------------------------- 

ex 3 

-19p15-------------------------15-19p15----15------------------- 
-------17-------------------17----------17---------------------- 
----------16--------------16------------------------------------ 
-------------17---------17-------------------------------------- 
---------------19-14h19----------------------------------------- 
---------------------------------------------------------------- 


-20p15---------------------------15-20p15----15----------------- 
------17----------------------17----------17-------------------- 
---------17----------------17----------------------------------- 
------------17----------17-------------------------------------- 
---------------19-15p19----------------------------------------- 
---------------------------------------------------------------- 

-21p17----------------------------17-21p17----17---------------- 
-------17----------------------17----------17------------------- 
----------18----------------18---------------------------------- 
-------------19----------19------------------------------------- 
----------------19----19---------------------------------------- 
-------------------21------------------------------------------- 

-20p15---------------------------15-20p15----15----------------- 
------17----------------------17----------17-------------------- 
---------17----------------17----------------------------------- 
------------17----------17-------------------------------------- 
---------------19-15h19----------------------------------------- 
---------------------------------------------------------------- 


-19p15---------------------------------------------------------- 
-------17------------------------------------------------------- 
----------16---------------------------------------------------- 
-------------17------------------------------------------------- 
---------------19-14-------------------------------------------- 
---------------------------------------------------------------- 

ex 4 
-----------------9h12p9-------------8-12p8-----15p12------------ 
--------------10--------10--------8--------8---------13--13----- 
------------9--------------9----9------------9---------12------- 
-------7h11------------------11--------------------------------- 
-----7---------------------------------------------------------- 
-5h9------------------------------------------------------------ 

ex 5 

--------8h11h14/17p14p11---------------11h14h17/20p17p14-------- 
---------------------------------------------------------------- 
8h11h14-----------------17p14p11h14h17-------------------------- 
---------------------------------------------------------------- 
---------------------------------------------------------------- 
---------------------------------------------------------------- 

-----------------14h17h20-23t----------------------------------- 
---------------------------------------------------------------- 
-20p17p14h17h20------------------------------------------------- 
---------------------------------------------------------------- 
---------------------------------------------------------------- 
---------------------------------------------------------------- 

ex 6 (Pode ser limado) 

------------------------12-14-15-14-12-------------------------- 
---------------------12----------------12-11b12----------------- 
-------------9-11-12-------------------------------------------- 
-----------9---------------------------------------------------- 
---7-9-10------------------------------------------------------- 
-7-------------------------------------------------------------- 
		  

See also:

tabs Ira! - Vitrine Viva tabs Deep Purple - Black Knight tabs Deep Purple - Demonds Eye tabs Deep Purple - Smoke on the Water (ver. 2) tabs Deep Purple - Clearly Quite Absurd tabs Ira! - Envelheço na Cidade (intro)
e-chords

Other versions:

tabs Exercise - How To Play Marty Friedman Style
auto scroll beats size up size down change color hide chords drawings
tab show chords e-chords YouTube Clip e-chords hide all tabs e-chords go to top tab

share