Everyday Sunday

Breathing For Me

Everyday Sunday

tabs

by  IRONPOWER4EVER

save to print version add songbook text version e-mail correct tuner
chordsukulelecavacokeyboardtabbassdrumsharmonicaflute Guitar Pro
close

there isn't a video lesson for this song

chords

Breathing For Me

	  		 

INTRO 

Electric 2 
D#|------------------------------| 
A#|------------------------------| 
F#|------------------------------| 
C#|-0-0-0-5----0-0-0-5---0-5-0-7-| 
G#|-0-0-0-5----0-0-0-5---0-5-0-7-| 
C#|-0-0-0-5----0-0-0-5---0-5-0-7-| 

Electric 1 
D#|-------------------------------| 
A#|-------------------------------| 
F#|-11/9\2-12\11-9/11\9\7--11\9\2-| 
C#|-x--x-x-x--x--x-x--x-x--x--x-x-| 
G#|-9-/7\0-10\9--7/9-\7\5--9-\7\0-| 
C#|-------------------------------| 

VERSE 

Electric 1+2 
D#|------------------------------------------------------------------------- 
A#|-------------------------------------------------------------------------| 
F#|-------------------------------------------------------------------------| 
C#|-5--------0-------7--------4------------5--------0--------7--------------| x2 
G#|-5--------0-------7--------4------------5--------0--------7--------------| 
C#|-5-55555--0-00000-7-77777--4-444444-----5-555555-0-000000-7-777777777777-| 
      *****    *****   *****    ******       ******   ******   ************ 

Chorus 

Electric 1+2 
D#|----------------| 
A#|----------------| 
F#|----------------| 
C#|-5-9-0----5-0-7-| x2 
G#|-5-9-0----5-0-7-| 
C#|-5-9-0----5-0-7-| 

VERSE 
(second time around E1 play...)  

Electric 1 
D#|-----------| 
A#|-----------| 
F#|-12--11--9-| 
C#|-x---x---x-| x2 
G#|-10--9---7-| 
C#|-----------| 

Chorus 
(second time around E1 play...) 

Electric 1 
D#|-------------------------| 
A#|-------------------------| 
F#|-12--11--7----12--11--14-| 
C#|-x---x---x----x---x---x--| 
G#|-10--9---5----10--9---12-| 
C#|-------------------------| 

BRIDGE 

Electric 1 
(palm mute all) 
D#|------------------------------------------| 
A#|------------------------------------------| 
F#|-14-------12-------14-------12-------1212-| 
C#|----12-------12-------12-------12----1414-| 
G#|-------12-------12-------12-------12------| 
C#|------------------------------------------| 

Chorus 
(just vocals. until end then...) 

Electric 1 
D#|----------------------------| 
A#|----------------------------| 
F#|-12-12--7-7--14141414141414-| 
C#|-x--x---x-x--x-x-x-x-x-x-x--| 
G#|-10-10--5-5--12121212121212-| 
C#|----------------------------| 

Chorus 

Electric 1 
D#|-------------------------| 
A#|-------------------------| 
F#|-12--11--7----12--11--14-| 
C#|-x---x---x----x---x---x--| 
G#|-10--9---5----10--9---12-| 
C#|-------------------------| 

Electric 2 
D#|----------------| 
A#|----------------| 
F#|----------------| 
C#|-5-9-0----5-0-7-|  
G#|-5-9-0----5-0-7-| 
C#|-5-9-0----5-0-7-| 

************************************ 

| /   slide up 
| \   slide down 
| h   hammer-on 
| p   pull-off 
| ~   vibrato 
| +   harmonic 
| x   Mute note 
| b   Bend 
| pb  Pre-bend 
| br  Bend release 
| pbr Pre-bend release 
| brb Bend release bend 

************************************ 
		  

See also:

tabs 12-Stones - Broken tabs Brad Paisley - Mud on the tires/intro. tabs Blindside - Pitiful tabs 12-Stones - Open your eyes tabs Hillsong - Revolution tabs Lee Greenwood - God Bless The Usa
e-chords

Other versions:

tabs Everyday Sunday - Breathing For Me
auto scroll beats size up size down change color hide chords drawings
tab show chords e-chords YouTube Clip e-chords hide all tabs e-chords go to top tab

share