Every Time I Die

The Great Secret

Every Time I Die

tabs

by  LUCICAMARGO

save to print version add songbook text version e-mail correct tuner
chordsukulelecavacokeyboardtabbassdrumsharmonicaflute Guitar Pro
close

there isn't a video lesson for this song

chords

The Great Secret

	  		

Tuning: Drop D 

Guitar 1: Left Stereo 
Guitar 2 Right Stereo 

INTRO (not distorted, sloppy, lots of reverb) 
Guitar 1 (let notes ring) 
E|--------------------------------------------------| 
B|--------------------------------------------------| 
G|-7------7-----10-------------7------7-----10------| 
D|-x------x------x-------------x------x------x------| 
A|-4------5------8------6--10--4------5------8------| 
D|----------------------6--10-----------------------| 

SECTION 1 
Both Guitars 
E|-----------------------------------------------------------| 
B|--------------------------ten------------------------------| 
G|-7777--7777--10101010------^--7777--7777--10101010---------| 
D|-xxxx--xxxx---x-x-x-x--66610--xxxx--xxxx---x-x-x-x--6-10-9-| 
A|-4444--5555---8-8-8-8--66610--4444--5555---8-8-8-8--6-10-9-| 
D|-----------------------66610------------------------6-10-9-| 

E|---------------------------------------------------| 
B|---------------------------------------------------| 
G|-7777--7777--10101010---------7777--7777--10101010-| 
D|-xxxx--xxxx---x-x-x-x--66610--xxxx--xxxx---x-x-x-x-| 
A|-4444--5555---8-8-8-8--66610--4444--5555---8-8-8-8-| 
D|-----------------------66610-----------------------| 

SECTION 2 
E|-----------------0-----+7-| 
B|-----------------0-----+7-| 
G|-----------------0-or?-+7-| 
D|-6--10--9--6--9-----------|x4 
A|-6--10--9--6--9-----------| 
D|-6--10--9--6--9-----------| 

NOTE: The open notes above might be replaced with harmonics on the 
7th fret. Not completely sure. 

SECTION 3 
Both Guitars (repeat first line 3 times for 3 different endings) 
E|-------------------------------------------------------------------------------------------| 
B|-------------------------------------------------------------------------------------------| 
G|-------------------------------------------------------------------------------------------| 
D|-------------------------------------------------------------------------------------------| 
A|-12p10-------------------------------------------------------------------------------------| 
D|-12p10-0-0-0-0-9h10-10-10-10-0-12p10p0-0-0-0-9h10-10-10-10-0-12p10p0-0-0-0-9h10-10-10-10-0-| 

  Ending 1                     Ending 2                  Ending 3 
E|--------------------------| |-----------------------| |-------------------------| 
B|--------------------------| |-----------------------| |-------------------------| 
G|------------------2p0-----| |--------------7--7--7--| |-------------------------| 
D|----------------------0h3-| |--------------6--6--6--| |-------------------------| 
A|--------------5p0---------| |--------------5--5--5--| |-------3-3-3-2-2-2-------| 
D|-10p0-3-3-0-0-------------| |-10p0-3-3-0-0----------| |-5-5-5-------------4-4-4-| 

E|----------------------------------------------------------------------------------------------| 
B|----------------------------------------------------------------------------------------------| 
G|---------------7--7--7----------------7--7--7----------------7--7--7--------------------------| 
D|---------------6--6--6----------------6--6--6----------------6--6--6--------------------------| 
A|-12p10---------5--5--5--12p10---------5--5--5--12p10---------5--5--5--------3-3-3-2-2-2-------| 
D|-12p10-0-0-0-0----------12p10-0-0-0-0----------12p10-0-0-0-0----------5-5-5-------------4-4-4-| 

REPEAT SECTION 1 

SECTION 4 
E|-----------------0-----+7-| 
B|-----------------0-----+7-| 
G|-----------------0-or?-+7-| 
D|-6--10--9--6--9-----------|x2 
A|-6--10--9--6--9-----------| 
D|-6--10--9--6--9-----------| 

E|-------------------------------------------------| 
B|-------------------------------------------------| 
G|-------------------------------------------------| 
D|-------------------------------------------------| 
A|-------3-3-3-2-2-2-------------3-3-3-2-2-2-------| 
D|-5-5-5-------------4-4-4-5-5-5-------------4-4-4-| 

SECTION 5 
Guitar 1 
E|--------------------------------------------------| 
B|--------------------------------------------------| 
G|--------------------------------------------------| 
D|--------------------------------------------------| 
A|-------6-6-6-9-9-9-------101010-9-9-9-------4-4-4-| 
D|-0-0-0-------------0-0-0--------------0-0-0-------| 
|| 
Guitar 2 
E|--------------------------------------------------| 
B|--------------------------------------------------| 
G|--------------------------------------------------| 
D|--------------------------------------------------| 
A|--------------------------------------------------| 
D|-0-0-0-------------0-0-0--------------0-0-0-------| 

Guitar 1 
E|------------------------------------------------| 
B|------------------------------------------------| 
G|------------------------------------------------| 
D|------------------------------------------------| 
A|-------6-6-6-9-9-9-------101010-9\--------------| 
D|-0-0-0-------------0-0-0------------0-0-0-1-1-1-| 
|| 
Guitar 2 
E|------------------------------------------------| 
B|------------------------------------------------| 
G|------------------------------------------------| 
D|------------------------------------------------| 
A|--------------------------------9\--------------| 
D|-0-0-0-------------0-0-0------------0-0-0-1-1-1-| 

REPEAT SECTION 5 

SECTION 6 
Both Guitars 
E|--------------------------------------------------| 
B|--------------------------------------------------| 
G|--------------------------------------------------| 
D|--------------------------------------------------| 
A|-------6-6-6-9-9-9-------101010-9-9-9-------4-4-4-| 
D|-0-0-0-------------0-0-0--------------0-0-0-------| 

E|------------------------------------------------------| 
B|------------------------------------------------------| 
G|------------------------------------------------------| 
D|------------------------------------------------------| 
A|-------6-6-6-9-9-9-------101010-9\--3-----------------| 
D|-0-0-0-------------0-0-0--------------5-0-3-0-1-0-0-0-| 

E|--------------------------------------------------| 
B|--------------------------------------------------| 
G|--------------------------------------------------| 
D|--------------------------------------------------| 
A|-------6-6-6-9-9-9-------101010-9-9-9-------4-4-4-| 
D|-0-0-0-------------0-0-0--------------0-0-0-------| 

E|--------------------------------------------------------------| 
B|--------------------------------------------------------------| 
G|------------------------------------------------0h1h2-0-------| 
D|--------------------------------------------------------0h3---| 
A|-------6-6-6-9-9-9-------101010-9\--3-----------------------3-| 
D|-0-0-0-------------0-0-0--------------5-0-3-1-0---------------| 

SECTION 7 
Both Guitars 
E|-----------------------------------------------| 
B|-----------------------------------------------| 
G|-7-------7-------10----------------------------| 
D|-x-(x12)-x-(x12)--x-(x12)-6--6--6--10--10--10--| 
A|-4-------5--------8-------6--6--6--10--10--10--| 
D|--------------------------6--6--6--10--10--10--| 

E|------------------------------------------0-| 
B|------------------------------------------0-| 
G|-7-------7-------10-----------------------0-| 
D|-x-(x12)-x-(x12)--x-(x12)-6--10--9--6--9----| 
A|-4-------5--------8-------6--10--9--6--9----| 
D|--------------------------6--10--9--6--9----| 

E|------------------------------------------------------------------------| 
B|------------------------------------------------------------------------| 
G|-7-------7-------10----------------------------7-------7-------10-------| 
D|-x-(x12)-x-(x12)--x-(x12)-6--6--6--10--10--10--x-(x12)-x-(x12)--x-(x12)-| 
A|-4-------5--------8-------6--6--6--10--10--10--4-------5--------8-------| 
D|--------------------------6--6--6--10--10--10---------------------------| 

SECTION 8 
Both Guitars 
E|-----------------------------------------------------| 
B|-----------------------------------------------------| 
G|-----------------------------------------------------| 
D|-6-10-9-0-6-9-6-10-9-0-6-9-6-10-9-0-6-9--------------| 
A|-6-10-9-0-6-9-6-10-9-0-6-9-6-10-9-0-6-9---6-10-9---4-| 
D|-6-10-9-0-6-9-6-10-9-0-6-9-6-10-9-0-6-9-0--------0---| 

E|----------------------------------------------------------------------| 
B|----------------------------------------------------------------------| 
G|----------------------------------------------------------------------| 
D|-6-10-9-0-6-9-6-10-9-0-6-9-6-10-9-0-6-9-------------------------------| 
A|-6-10-9-0-6-9-6-10-9-0-6-9-6-10-9-0-6-9---6-10-9---4---6-10-9---4b5.5-| 
D|-6-10-9-0-6-9-6-10-9-0-6-9-6-10-9-0-6-9-0--------0---0--------0-------| 

SECTION 9 
Both Guitars (strange timing) 
E|-------------------------------------| 
B|-------------------------------------| 
G|-------------------------------------| 
D|---1-5-4---1-5-4-0-1---1-5-4-1-5-4-1-| 
A|-0-1-5-4-0-1-5-4-0-1-0-1-5-4-1-5-4-1-| 
D|-0-1-5-4-0-1-5-4-0-1-0-1-5-4-1-5-4-1-| 
   .       .           . 

E|---------------------------------------------| 
B|---------------------------------------------| 
G|---------------------------------------------| 
D|---1-5-4---1-5-4-0-1---1-5-4-1-5-4-1---------| 
A|-0-1-5-4-0-1-5-4-0-1-0-1-5-4-1-5-4-1-0-0-0-0-| 
D|-0-1-5-4-0-1-5-4-0-1-0-1-5-4-1-5-4-1-0-0-0-0-| 
   .       .           .               . . . . 

REPEAT SECTION 9 

OUTRO 
Guitar 1 (same effects as intro) 
E|----------------------| 
B|----------------------| 
G|-7------7-----10------| 
D|-x------x------x------| 
A|-4------5------8------| 
D|----------------------| 

Both Guitars (distortion again) 
E|-----------------------------------------------------------| 
B|-----------------------------------------------------------| 
G|-7777--7777--10101010---------7777--7777--10101010---------| 
D|-xxxx--xxxx---x-x-x-x--66610--xxxx--xxxx---x-x-x-x--6-10-9-| 
A|-4444--5555---8-8-8-8--66610--4444--5555---8-8-8-8--6-10-9-| 
D|-----------------------66610------------------------6-10-9-| 

Awesome groove on this song. It's possible that some of the notes 
should be shifted to different strings, but this worked for me and 
it sounds right for the most part. I will be doing the rest of the 
album eventually, so keep your eyes open. 
Please rate & comment. 
Thanks, 
millarso 

************************************ 

| /   slide up 
| \   slide down 
| h   hammer-on 
| p   pull-off 
| ~   vibrato 
| +   harmonic 
| x   Mute note 
| b   Bend 
| pb  Pre-bend 
| br  Bend release 
| pbr Pre-bend release 
| brb Bend release bend 

************************************ 
		  

Full key step upFull key step up
Half key step upHalf key step up
Half key step downHalf key step down
Full key step downFull key step down
hide glossary

See also:

tabs Jack Johnson - Good People tabs Rage Against The Machine - Killing In The Name (ver. 2) tabs Blue Oyster Cult - Dont Fear The Reaper tabs R.E.M. - Losing my religion tabs Smashing Pumpkins - Today tabs Foo Fighters - Learn to Fly (acoustic version)
e-chords

Other versions:

tabs Every Time I Die - The Great Secret
auto scroll beats size up size down change color hide chords drawings
tab show chords e-chords YouTube Clip e-chords hide all tabs e-chords go to top tab

share