Every Time I Die

Partying Is Such Sweet Sorrow

Every Time I Die

tabs

by  ROBEPOIEL

save to print version add songbook text version e-mail correct tuner
chordsukulelecavacokeyboardtabbassdrumsharmonicaflute Guitar Pro
close

there isn't a video lesson for this song

chords

Partying Is Such Sweet Sorrow

	  		Intro (plays after 2x of a banjo part) 
Guitar 1 
e|------------------------------------------0h3p0-------------------| 
B|-----0h3p0--------------------------0h3p0-------3h5p0-------------| 
G|-3p0-------0h5p0-3p2p0-2h3p0----3p0-------------------3p0-5p0-3p0-| 
D|-----------------------------4------------------------------------|x2 
A|------------------------------------------------------------------| 
D|------------------------------------------------------------------| 

Section 1 
Guitar 1 (same as intro) 
e|------------------------------------------0h3p0-------------------| 
B|-----0h3p0--------------------------0h3p0-------3h5p0-------------| 
G|-3p0-------0h5p0-3p2p0-2h3p0----3p0-------------------3p0-5p0-3p0-| 
D|-----------------------------4------------------------------------|x4 
A|------------------------------------------------------------------| 
D|------------------------------------------------------------------| 

Guitar 2 
e|------------------------------------------------------------------| 
B|------------------------------------------------------------------| 
G|------------------------------------------------------------------| 
D|-5-5-5-8------------------------5-5-5-8---------------------------|x2 
A|-5-5-5-8------------------------5-5-5-8---------------------------| 
D|-5-5-5-8------------------------5-5-5-8---------------------------| 

e|------------------------------------------------------------------| 
B|------------------------------------------------------------------| 
G|------------------------------------------------------------------| 
D|-5-5-5-8---0-----0-----0--------5-5-5-8----0----0----0----0----0--| 
A|-5-5-5-8---0-----0-----0--------5-5-5-8----0----0----0----0----0--| 
D|-5-5-5-8---0-----0-----0--------5-5-5-8----0----0----0----0----0--| 
             .     .     .                   .    .    .    .    . 
e|-------------------------------------------------------------------| 
B|-------------------------------------------------------------------| 
G|-------------------------------------------------------------------| 
D|-5-5-5-8---0-----0-----0--------5-5-5-8--0--0--0--0--0--0--0--0--0-| 
A|-5-5-5-8---0-----0-----0--------5-5-5-8--0--0--0--0--0--0--0--0--0-| 
D|-5-5-5-8---0-----0-----0--------5-5-5-8--0--0--0--0--0--0--0--0--0-| 
             .     .     .                 .  .  .  .  .  .  .  .  . 

Section 2 
Both Guitars 
e|-------------------------------------| 
B|-------------------------------------| 
G|--------7-6----------------7-6-------| 
D|-555-8--7-6-7-8-4---555-8--7-6-7-8-4-|x2 
A|-555-8--5-4-7-8-4---555-8--5-4-7-8-4-| 
D|-555-8------7-8-4---555-8------7-8-4-| 

e|---------------------------------------| 
B|---------------------------------------| 
G|-----10----7-6-----------10----7-6-----| 
D|-555-10--8-7-6-8-4---555-10--8-7-6-8-4-|x2 
A|-555--8--8-5-4-8-4---555--8--8-5-4-8-4-| 
D|-555-----8-----8-4---555-----8-----8-4-| 

Section 3 
e|--------------------------------------------------------------------| 
B|--------------------------------------------------------------------| 
G|--------------------------7-------------------------------7-6-------| 
D|-555-8-----------555-8----7----8-4--555-8-----------555-8-7-6-7-8-4-|x2 
A|-555-8-0-0-0-0-0-555-8-00-5-00-8-4--555-8--0--0--0--555-8-5-4-7-8-4-| 
D|-555-8-0-0-0-0-0-555-8-00---00-8-4--555-8--0--0--0--555-8-----7-8-4-| 
         . . . . .       ..   ..             .  .  . 

Section 4 
Both Guitars 
e|------------------------------| 
B|------------------------------| 
G|-------7--6-------------------| 
D|-5-----7--6-----7--8-----5--4-|x2 
A|-5-----5--4-----7--8-----5--4-| 
D|-5--------------7--8-----5--4-| 

"I used to be a holy man..." 
Guitar 2 Plays Above at higher tempo (x2) 
Guitar 1 
e|-----------------------| 
B|-----------------------| 
G|-----------------------| 
D|-----7-6~--------------|x2 
A|-5~--------7-8~--5-4~--| 
D|-----------------------| 

"At least I'm in good company..." 
Guitar 2 plays same at even higher tempo (x4) 
Guitar 1 
e|-----------------------| 
B|----10-9~--------------| 
G|-7~--------9-10~--7-6~-| 
D|-----------------------|x4 
A|-----------------------| 
D|-----------------------| 

Section 5 (Sounds choppy because 2nd guitar track is delayed) 
e|-----------------------------------------------------------------| 
B|-----------------------------------------------------------------| 
G|-----------------------------------------------------------------| 
D|-5-8-8-8-8-5-5-8-8-8-8-5-5-4-4-5-5-8-8-8-8-5-5-8-8-8-8-5-5-8-8-4-|x2 
A|-----------------------------------------------------------------| 
D|-----------------------------------------------------------------| 
   . . . . . . . . . . . . . . . . . . . . . . . . . . . . . . . . 

Section 6 
Guitar 1 
e|----------------------------------------------------------------| 
B|----------------------------------------------------------------| 
G|----------------------------------------------------------------| 
D|-5-8b9999-5-5-8b9999-5-5-4-4-5-5-8b9999-5-5-8b9999-5-5-8b99-4-5-| 
A|-5--------5-5--------5-5-4-4-5-5--------5-5--------5-5------4-5-| 
D|-5--------5-5--------5-5-4-4-5-5--------5-5--------5-5------4-5-| 

e|---------------------------------------------------------------| 
B|---------------------------------------------------------------| 
G|---------------------------------------------------------------| 
D|-8b9999-5-5-8b9999-5-5-8b99-5-5-8b9999-5-5-8b9999-5-5-8b99-4-5-| 
A|--------5-5--------5-5------5-5--------5-5--------5-5------4-5-| 
D|--------5-5--------5-5------5-5--------5-5--------5-5------4-5-| 

Guitar 2 
e|---------------------------------------------------------------| 
B|---------------------------------------------------------------| 
G|---------------------------------------------------------------| 
D|-(5)------5-5--------5-5-4-4-5-5--------5-5--------5-5-8-8-4-5-|x2 
A|-(5)------5-5--------5-5-4-4-5-5--------5-5--------5-5-8-8-4-5-| 
D|-(5)------5-5--------5-5-4-4-5-5--------5-5--------5-5-8-8-4-5-| 
 (1st time only) 

Section 7 
e|-------------------------------------| 
B|-------------------------------------| 
G|-------------------------------------| 
D|--------------8-8-8---0-8b99-5-5-4-4-|x4 
A|-(00)00000000-7-7-7-000------5-5-4-4-|(Play the notes in () after 1st time) 
D|-(00)00000000-8-8-8-000------5-5-4-4-| 
    .. ........       .. 

Section 9 
e|---------------------------------------------------------------------| 
B|---------------------------------------------------------------------| 
G|---------------------------------------------------------------------| 
D|-(5)-5-8-8-8-8-5-5-8-8-8-8-5-5-4-4-5-5-8-8-8-8-5-5-8-8-8-8-5-5-8-8-4-|x2 
A|-(5)-5-8-8-8-8-5-5-8-8-8-8-5-5-4-4-5-5-8-8-8-8-5-5-8-8-8-8-5-5-8-8-4-| 
D|-(5)-5-8-8-8-8-5-5-8-8-8-8-5-5-4-4-5-5-8-8-8-8-5-5-8-8-8-8-5-5-8-8-4-| 
 (1st time only) 

Section 10 
Guitar 1 
e|----------------------------------------------------------------| 
B|----------------------------------------------------------------| 
G|----------------------------------------------------------------| 
D|-5-8b9999-5-5-8b9999-5-5-4-4-5-5-8b9999-5-5-8b9999-5-5-8b99-4-5-| 
A|-5--------5-5--------5-5-4-4-5-5--------5-5--------5-5------4-5-| 
D|-5--------5-5--------5-5-4-4-5-5--------5-5--------5-5------4-5-| 

e|----------------------------------------------------------------| 
B|-11b------------------------------------------------------------| 
G|--x-------------------------------------------------------------| 
D|--8b9999-5-5-8b9999-5-5-8b99-5-5-8b9999-5-5-8b9999-5-5-8b99-4-5-| 
A|---------5-5--------5-5------5-5--------5-5--------5-5------4-5-| 
D|---------5-5--------5-5------5-5--------5-5--------5-5------4-5-| 

Guitar 2 
e|---------------------------------------------------------------| 
B|---------------------------------------------------------------| 
G|---------------------------------------------------------------| 
D|-5--------5-5--------5-5-4-4-5-5--------5-5--------5-5-8-8-4-5-|x2 
A|-5--------5-5--------5-5-4-4-5-5--------5-5--------5-5-8-8-4-5-| 
D|-5--------5-5--------5-5-4-4-5-5--------5-5--------5-5-8-8-4-5-| 

 
		  

See also:

tabs Jack Johnson - Good People tabs Rage Against The Machine - Killing In The Name (ver. 2) tabs Blue Oyster Cult - Dont Fear The Reaper tabs R.E.M. - Losing my religion tabs Smashing Pumpkins - Today tabs Foo Fighters - Learn to Fly (acoustic version)
e-chords

Other versions:

tabs Every Time I Die - Partying Is Such Sweet Sorrow
auto scroll beats size up size down change color hide chords drawings
tab show chords e-chords YouTube Clip e-chords hide all tabs e-chords go to top tab

share