Every Time I Die

Overstayer

Every Time I Die

tabs

by  TAMAMOREIRA

save to print version add songbook text version e-mail correct tuner
chordsukulelecavacokeyboardtabbassdrumsharmonicaflute Guitar Pro
close

there isn't a video lesson for this song

chords

Overstayer

	  		

INTRO 
Guitar 2 
E|--------------------------------| 
B|--------------------------------| 
G|----7-7-----7-7-----7-7---------| 
D|-6--x-x-6-6-x-x-6-6-x-x-6-6-7-0-|x3 
A|-6--5-5-6-6-5-5-6-6-5-5-6-6-7-0-| 
D|-6------6-6-----6-6-----6-6-7-0-| 

Guitar 1 
E|----------------------------------| 
B|----------------------------------| 
G|--------------------7-------------| 
D|----------------------6h7-6\4p0-3-| 
A|--------------------------------3-| 
D|--------------------------------3-| 
|| 
Guitar 2 
E|----------------------------------| 
B|----------------------------------| 
G|----7-7-----7-7-----7-------------| 
D|-6--x-x-6-6-x-x-6-6---6h7-6\4p0-3-| 
A|-6--5-5-6-6-5-5-6-6-------------3-| 
D|-6------6-6-----6-6-------------3-| 

SECTION 1 
Both Guitars 
E|--------------------------------| 
B|--------------------------------| 
G|----7-7-----7-7-----7-7---------| 
D|-6--x-x-6-6-x-x-6-6-x-x-6-6-7-0-|x3 
A|-6--5-5-6-6-5-5-6-6-5-5-6-6-7-0-| 
D|-6------6-6-----6-6-----6-6-7-0-| 

E|---------------------------------------| 
B|---------------------------------------| 
G|----7-7-----7-7-----7------------------| 
D|-6--x-x-6-6-x-x-6-6---6h7-6\4p0-3--2-0-| 
A|-6--5-5-6-6-5-5-6-6-------------3--2-0-| 
D|-6------6-6-----6-6-------------3--2-0-| 

SECTION 2 
E|---------------------------------------------------------------| 
B|----0-0-0-0-----0-0-----0-0--------0-0-0-0-----0-0-----0-0-0-0-| 
G|----3-3-3-3-----3-3-----3-3--------3-3-3-3-----3-3-----4-4-3-0-| 
D|-2----------2-2-----2-2-----2-0-2----------2-2-----2-2---------| 
A|-2----------2-2-----2-2-----2-0-2----------2-2-----2-2---------| 
D|-2----------2-2-----2-2-----2-0-2----------2-2-----2-2---------| 

REPEAT SECTION 1 

SECTION 3 (almost identical to 2) 
Both Guitars 
E|---------------------------------------------------------------| 
B|----0-0-0-0-----0-0-----0-0--------0-0-0-0-----0-0-----0-0-0-0-| 
G|----3-3-3-3-----3-3-----3-3--------3-3-3-3-----3-3-----4-4-3-0-| 
D|-2----------2-2-----2-2-----2-0-2----------2-2-----2-2---------| 
A|-2----------2-2-----2-2-----2-0-2----------2-2-----2-2---------| 
D|-2----------2-2-----2-2-----2-0-2----------2-2-----2-2---------| 

E|------------------------------------------------------------------| 
B|----0-0-0-0-----0-0-----0-0--------0-0-0-0-----0-0-0-0------------| 
G|----3-3-3-3-----3-3-----3-3--------3-3-3-3-----3-4-3-0------------| 
D|-2----------2-2-----2-2-----2-0-2----------2-2---------3-2-0-2-6\-| 
A|-2----------2-2-----2-2-----2-0-2----------2-2---------3-2-0-2-6\-| 
D|-2----------2-2-----2-2-----2-0-2----------2-2---------3-2-0-2-6\-| 

SECTION 4 
Guitar 2 
E|-----------------------------------------------------------------| 
B|-----------------------4-4/8-8-8-----------------------3-3/5-5-5-| 
G|-4-4-4-4-4-4-4-4-4-4-4-4-4/8-8-8-4-4-4-4-4-4-4-4-4-4-4-3-3/5-5-5-| 
D|-6-6-6-6-6-6-6-5-5-5-5-----------6-6-6-6-6-6-6-5-5-5-5-----------| 
A|-----------------------------------------------------------------| 
D|-----------------------------------------------------------------| 
   . . . . . . . . . . .           . . . . . . . . . . . 

E|-------------------------------------------------------------| 
B|-----------------------------------------------6-6-6-6-6-6-6-| 
G|-4-4-4-4-4-4-4-1-1-1-1-1-1-1-1-4-4-4-4-4-4-4-4-4-4-4-3-3-3-3-| 
D|-6-6-6-6-6-6-6-3-3-3-3-2-2-2-2-6-6-6-6-6-6-6-6---------------| 
A|-------------------------------------------------------------| 
D|-------------------------------------------------------------| 
   . . . . . . .                 . . . . . . . . 

Guitar 1 
E|-----------------------------------------------------------------| 
B|-----------------------4-4/8-8-8-----------------------3-3/5-5-5-| 
G|-----------------------4-4/8-8-8-----------------------3-3/5-5-5-| 
D|-----------------------------------------------------------------| 
A|-----------------------------------------------------------------| 
D|-----------------------------------------------------------------| 
|| 
Guitar 2 
E|-----------------------------------------------------------------| 
B|-----------------------4-4/8-8-8-----------------------3-3/5-5-5-| 
G|-4-4-4-4-4-4-4-4-4-4-4-4-4/8-8-8-4-4-4-4-4-4-4-4-4-4-4-3-3/5-5-5-| 
D|-6-6-6-6-6-6-6-5-5-5-5-----------6-6-6-6-6-6-6-5-5-5-5-----------| 
A|-----------------------------------------------------------------| 
D|-----------------------------------------------------------------| 
   . . . . . . . . . . .           . . . . . . . . . . . 

Guitar 1 
E|-------------------------------------------------------------| 
B|-----------------------------------------------6-6-6-6-6-6-6-| 
G|---------------1-1-1-1-1-1-1-1-----------------4-4-4-3-3-3-3-| 
D|---------------3-3-3-3-2-2-2-2-------------------------------| 
A|-------------------------------------------------------------| 
D|-------------------------------------------------------------| 
|| 
Guitar 2 
E|-------------------------------------------------------------| 
B|-----------------------------------------------6-6-6-6-6-6-6-| 
G|-4-4-4-4-4-4-4-1-1-1-1-1-1-1-1-4-4-4-4-4-4-4-4-4-4-4-3-3-3-3-| 
D|-6-6-6-6-6-6-6-3-3-3-3-2-2-2-2-6-6-6-6-6-6-6-6---------------| 
A|-------------------------------------------------------------| 
D|-------------------------------------------------------------| 
   . . . . . . .                 . . . . . . . . 

SECTION 5 
Both Guitars 
E|------------------------------------------------------------| 
B|----------------------------------------------6-6-6-6-6-6-6-| 
G|----------------------------------------------4-4-4-3-3-3-3-| 
D|-3-3-3-2-2-2-2--3-3-3-2-2-2-2--3-3-3-2-2-2-2----------------| 
A|-3-3-3-2-2-2-2--3-3-3-2-2-2-2--3-3-3-2-2-2-2----------------| 
D|-3-3-3-2-2-2-2--3-3-3-2-2-2-2--3-3-3-2-2-2-2----------------| 

E|------------------------------------------------------------| 
B|----------------------------------------------6-6-----------| 
G|----------------------------------------------4-4-3---------| 
D|-3-3-3-2-2-2-2--3-3-3-2-2-2-2--3-3-3-2-2-2-2--------3-------| 
A|-3-3-3-2-2-2-2--3-3-3-2-2-2-2--3-3-3-2-2-2-2--------3-------| 
D|-3-3-3-2-2-2-2--3-3-3-2-2-2-2--3-3-3-2-2-2-2--------3-2-0-0-| 

SECTION 6 
Both Guitars 
E|---------------------------------------------------------------| 
B|----0-0-0-0-----0-0-----0-0--------0-0-0-0-----0-0-----0-0-0-0-| 
G|----3-3-3-3-----3-3-----3-3--------3-3-3-3-----3-3-----4-4-3-0-| 
D|-2----------2-2-----2-2-----2-0-2----------2-2-----2-2---------| 
A|-2----------2-2-----2-2-----2-0-2----------2-2-----2-2---------| 
D|-2----------2-2-----2-2-----2-0-2----------2-2-----2-2---------| 

E|-----------------------------------------------------------------| 
B|----0-0-0-0-----0-0-----0-0--------0-0-0-0-----0-0-0-0-----------| 
G|----3-3-3-3-----3-3-----3-3--------3-3-3-3-----3-4-3-0-----------| 
D|-2----------2-2-----2-2-----2-0-2----------2-2---------3-2-------| 
A|-2----------2-2-----2-2-----2-0-2----------2-2---------3-2-0-0-0-| 
D|-2----------2-2-----2-2-----2-0-2----------2-2---------3-2-0-0-0-| 
                                                             . . . 

E|---------------------------------------------------------------| 
B|----0-0-0-0-----0-0-----0-0--------0-0-0-0-----0-0-----0-0-0-0-| 
G|----3-3-3-3-----3-3-----3-3--------3-3-3-3-----3-3-----4-4-3-0-| 
D|-2----------2-2-----2-2-----2-0-2----------2-2-----2-2---------| 
A|-2----------2-2-----2-2-----2-0-2----------2-2-----2-2---------| 
D|-2----------2-2-----2-2-----2-0-2----------2-2-----2-2---------| 

E|-----------------------------------------------------------------| 
B|----0-0-0-0-----0-0-----0-0--------0-0-0-0-----0-0-0-0-----------| 
G|----3-3-3-3-----3-3-----3-3--------3-3-3-3-----3-4-3-0-----------| 
D|-2----------2-2-----2-2-----2-0-2----------2-2---------3-2-0-2-6-| 
A|-2----------2-2-----2-2-----2-0-2----------2-2---------3-2-0-2-6-| 
D|-2----------2-2-----2-2-----2-0-2----------2-2---------3-2-0-2-6-| 

OUTRO 
E|--------------------------------| 
B|--------------------------------| 
G|------------------7-------------| 
D|-(6)-----6----------6h7-6\4p0-3-| 
A|-(6)-----6--------------------3-| 
D|-(6)-----6-----6--------------3-| 

E|------------------------------------------------| 
B|------------------------------------------------| 
G|----7-7-----7-7-----7-7-------------------------| 
D|-6--x-x-6-6-x-x-6-6-x-x-6-6-7-0-6--\\\\\\\\\\\\-| 
A|-6--5-5-6-6-5-5-6-6-5-5-6-6-7-0-6--\pick\slide\-| 
D|-6------6-6-----6-6-----6-6-7-0-6--\\\\\\\\\\\\-| 

SECTION 4 was a little tough to make out at times,  
but this should get you close. 
Please rate & comment. 
Thanks, 
millarso 

************************************ 

| /   slide up 
| \   slide down 
| h   hammer-on 
| p   pull-off 
| ~   vibrato 
| +   harmonic 
| x   Mute note 
| b   Bend 
| pb  Pre-bend 
| br  Bend release 
| pbr Pre-bend release 
| brb Bend release bend 

************************************ 
		  

See also:

tabs Jack Johnson - Good People tabs Rage Against The Machine - Killing In The Name (ver. 2) tabs Blue Oyster Cult - Dont Fear The Reaper tabs R.E.M. - Losing my religion tabs Smashing Pumpkins - Today tabs Foo Fighters - Learn to Fly (acoustic version)
e-chords

Other versions:

tabs Every Time I Die - Overstayer
auto scroll beats size up size down change color hide chords drawings
tab show chords e-chords YouTube Clip e-chords hide all tabs e-chords go to top tab

share