Every Time I Die

Old Light

Every Time I Die

tabs

by  BOMBAXXX

save to print version add songbook text version e-mail correct tuner
chordsukulelecavacokeyboardtabbassdrumsharmonicaflute Guitar Pro
close

there isn't a video lesson for this song

chords

Old Light

	  		
Guitar 1: Left Stereo 
Guitar 2: Right Stereo 

INTRO 
Both Guitars 
E|----------------------------------------------| 
B|----------------------------------------------| 
G|----------------------------------------------| 
D|-2--4-4-2-2s4--2--4-4-2-2s4--2--4-4-2-2s4--2--| 
A|-2--4-4-2-2s4--2--4-4-2-2s4--2--4-4-2-2s4--2--| 
D|-2--4-4-2-2s4--2--4-4-2-2s4--2--4-4-2-2s4--2--| 

SECTION 1 
Both Guitars 
E|-------------------------------| 
B|-------------------------------| 
G|-4--6-6-4-4-6---4--6-6-6-6-6-6-| 
D|-2--4-4-2-2-4-0-2--4-4-4-4-4-4-|x3 
A|-2--4-4-2-2-4-0-2--4-4-4-4-4-4-| 
D|-2--4-4-2-2-4-0-2--4-4-4-4-4-4-| 

E|-------------------------------| 
B|-------------------------------| 
G|-4--6-6-4-4-6----------8-8-7-7-| 
D|-2--4-4-2-2-4-0-6--9-9-8-8-7-7-| 
A|-2--4-4-2-2-4-0-6--9-9-6-6-5-5-| 
D|-2--4-4-2-2-4-0-6--9-9---------| 

REPEAT SECTION 1 

TRANSITION 1 
Guitar 1 
E|--------------------------------| 
B|--------------------------------| 
G|-6------------------------------| 
D|-6-(let-ring)-------------7-6-0-| 
A|-4------------------------7-6-0-| 
D|--------------------------7-6-0-| 
|| 
Guitar 2 
E|--------------------------------| 
B|-7--7-6-6-7-7-6-6-7-7-6-6-7-7-6-| 
G|-6--6-6-6-6-6-6-6-6-6-6-6-6-6-6-| 
D|--------------------------------| 
A|--------------------------------| 
D|--------------------------------| 

SECTION 2 
Both Guitars 
E|---------------------------------------------------------------| 
B|--------------------------------7--7-6-6-7-7-6-6-7-7-6-6-7-7-6-| 
G|--------------------------------6--6-6-6-6-6-6-6-6-6-6-6-6-6-6-| 
D|-7--7---------7-------7---7-6-0--------------------------------|x3 
A|-7--7-7-7-7-7-7-7-7-7-7-7-7-6-0--------------------------------| 
D|-7--7-7-7-7-7-7-7-7-7-7-7-7-6-0--------------------------------| 
        . . . .   . . .   . 

E|--------------------------------| 
B|--------------------------------| 
G|--------------------------------| 
D|-7--7---------7-------7---7-6-0-| 
A|-7--7-7-7-7-7-7-7-7-7-7-7-7-6-0-| 
D|-7--7-7-7-7-7-7-7-7-7-7-7-7-6-0-| 
        . . . .   . . .   . 

SECTION 3 
Both Guitars (Guitar 2 seems to have a bit of wah effect to it) 
E|--------------------------------------|  |-------------------------------------| 
B|--------------------------------------|  |-------------------------------------| 
G|--------------------------------------|  |----------------------8--8-8-8-8-7-7-| 
D|-0---0--0--0--0--0--0-0-0--0-0-11--11-|x3|-0---0--0--0--0--0--0-8--8-8-8-8-7-7-| 
A|-9--11-11-12-12-11-11-9-9-11-0--9---9-|  |-9--11-11-12-12-11-11-6--6-6-6-6-5-5-| 
D|--------------------------------------|  |-------------------------------------| 

E|--------------------------------------|  |----------------------------------------| 
B|--------------------------------------|  |----------------------------------------| 
G|--------------------------------------|  |----------------------8--8-8-8-8-7-7-7--| 
D|-0---0--0--0--0--0--0-0-0--0-0-11--11-|x3|-0---0--0--0--0--0--0-8--8-8-8-8-7-7-7--| 
A|-9--11-11-12-12-11-11-9-9-11-0--9---9-|  |-9--11-11-12-12-11-11-6--6-6-6-6-5-5-5--| 
D|--------------------------------------|  |----------------------------------------| 

REPEAT SECTION 1 x2 

TRANSITION 2 
Both Guitars 
E|--------------------------------| 
B|-7--7-6-6-7-7-6-6-7-7-6-6-7-7-6-| 
G|-6--6-6-6-6-6-6-6-6-6-6-6-6-6-6-| 
D|--------------------------------| 
A|--------------------------------| 
D|--------------------------------| 

REPEAT SECTION 2 

SECTION 4 (almost same as 3) 
Both Guitars 
E|--------------------------------------|  |-------------------------------------| 
B|--------------------------------------|  |-------------------------------------| 
G|--------------------------------------|  |----------------------8--8-8-8-8-7-7-| 
D|-0---0--0--0--0--0--0-0-0--0-0-11--11-|x3|-0---0--0--0--0--0--0-8--8-8-8-8-7-7-| 
A|-9--11-11-12-12-11-11-9-9-11-0--9---9-|  |-9--11-11-12-12-11-11-6--6-6-6-6-5-5-| 
D|--------------------------------------|  |-------------------------------------| 

E|--------------------------------------|  |----------------------| 
B|--------------------------------------|  |----------------------| 
G|--------------------------------------|  |----------------------| 
D|-0---0--0--0--0--0--0-0-0--0-0-11--11-|x3|-0---0--0--0--0--0--0-| 
A|-9--11-11-12-12-11-11-9-9-11-0--9---9-|  |-9--11-11-12-12-11-11-| 
D|--------------------------------------|  |----------------------| 

E|-------------------------------------------------------------| 
B|-------------------------------------------------------------| 
G|-------------------------------------------------------------| 
D|-7--7-7-7-7-2s4-7--7-7-7-7-2s4-7--7-7-7-7-2s4-7--7-7-7-7-2s4-| 
A|-7--7-7-7-7-2s4-7--7-7-7-7-2s4-7--7-7-7-7-2s4-7--7-7-7-7-2s4-| 
D|-7--7-7-7-7-2s4-7--7-7-7-7-2s4-7--7-7-7-7-2s4-7--7-7-7-7-2s4-| 

SECTION 5 
Both Guitars 
E|-------------------------------------------------------------| 
B|-------------------------------------------------------------| 
G|-4-s6-----------4-s6-----------4-s6--------------------------| 
D|-0--------------0--------------0--------------7--7-7-7-7-2s4-|x3 
A|-2-s4-4-444-444-2-s4-4-444-444-2-s4-4-444-444-7--7-7-7-7-2s4-| 
D|-0----0-000-000-0----0-000-000-0----0-000-000-7--7-7-7-7-2s4-| 
        . ... ... .    . ... ...      . ... ... 

NOTE: Let the open notes ring during the slide 

E|--------------------------------------------------------------------| 
B|--------------------------------------------------------------------| 
G|-4-s6-----------4-s6-----------4-s6---------------------------------| 
D|-0--------------0--------------0--------------6--9-9-13-13-12-12-12-| 
A|-2-s4-4-444-444-2-s4-4-444-444-2-s4-4-444-444-6--9-9-13-13-12-12-12-| 
D|-0----0-000-000-0----0-000-000-0----0-000-000-6--9-9-13-13-12-12-12-| 
        . ... ... .    . ... ...      . ... ... 

SECTION 6 
Both Guitars 
E|--------------------------------------------------------------| 
B|--------------------------------------------------------------| 
G|-4-s6-----------4-s6-----------4-s6---------------------------| 
D|-0----0-0-0-0-0-0----0-0-0-0-0-0----0-0-0-0-0-0-0-0-0-0-000-0-|x4 
A|-2-s4-4-4-4-4-4-2-s4-4-4-4-4-4-2-s4-4-4-4-4-4-4-4-4-4-4-444-4-| 
D|-0----0-0-0-0-0-0----0-0-0-0-0-0----0-0-0-0-0-0-0-0-0-0-000-0-| 
        . . . . .      . . . . .      . . . . . . . . . . ... . 

OUTRO 
Both Guitars 
E|--------------| 
B|--------------| 
G|--------------| 
D|-2--4-4-2-2/4-| 
A|-2--4-4-2-2/4-| 
D|-2--4-4-2-2/4-| 

This pretty fun and melodic compared to a lot of ETID songs. 
There are a lot of little things that make these guitar riffs 
sound really full. Hope you like it. 
Please rate & comment. 
Thanks, 
millarso 

************************************ 

| s   slide between notes 
| /   slide up 
| \   slide down 
| h   hammer-on 
| p   pull-off 
| ~   vibrato 
| +   harmonic 
| x   Mute note 
| b   Bend 
| pb  Pre-bend 
| br  Bend release 
| pbr Pre-bend release 
| brb Bend release bend 

************************************ 
		  

See also:

tabs Jack Johnson - Good People tabs Rage Against The Machine - Killing In The Name (ver. 2) tabs Blue Oyster Cult - Dont Fear The Reaper tabs R.E.M. - Losing my religion tabs Smashing Pumpkins - Today tabs Foo Fighters - Learn to Fly (acoustic version)
e-chords

Other versions:

tabs Every Time I Die - Old Light
auto scroll beats size up size down change color hide chords drawings
tab show chords e-chords YouTube Clip e-chords hide all tabs e-chords go to top tab

share