Every Time I Die

Decayin' With The Boys?

Every Time I Die

tabs

by  LUCICAMARGO

save to print version add songbook text version e-mail correct tuner
chordsukulelecavacokeyboardtabbassdrumsharmonicaflute Guitar Pro
close

there isn't a video lesson for this song

chords

Decayin' With The Boys?

	  		

Guitar 1: Left Stereo 
Guitar 2: Right Stereo 

SECTION 1  
Both Guitars 
F-|-----------------------------------------------------------------| 
C |-----------------------------------------------------------------| 
G#|-----------------------------------------------------------------| 
D#|-----------------------------------------------------------------| 
A#|---------------------------3-------------------------------------| 
D#|-3-0-0-0-3-0-0-0-3-3-0-3-5---5-0-3-0-0-0-3-0-0-0-0-0-0-0-0-6-5-1-| 

F |---------------------------------------------------------------------| 
C |---------------------------------------------------------------------| 
G#|---------------------------------------------------------------------| 
D#|-------------------------------------------------10-10-10-7-10-7-7-7-| 
A#|---------------------------3---------------------10-10-10-7-10-7-7-7-| 
D#|-3-0-0-0-3-0-0-0-3-3-0-3-5---5-0-3-0-0-0-3-0-0-0-10-10-10-7-10-7-7-7-| 

REPEAT SECTION 1 

SECTION 2 
Both Guitars 
F |-------------------------------------------------------------------| 
C |-------------------------------------------------------------------| 
G#|-------------------------------------------------------------------| 
D#|-------------------------------------------------------------------| 
A#|---------------------------3----------------(Gtr-1-only)-----------| 
D#|-3-0-0-0-3-0-0-0-3-3-0-3-5---5-0-3-0-0-0-(3-0-0-0-0-0-0-0-0)-6-5-1-| 

F |-------------------------------------------------| 
C |-------------------------------------------------| 
G#|-------------------------------------------------| 
D#|-------------------------------------------------| 
A#|---------------------------3---------------------| 
D#|-3-0-0-0-3-0-0-0-3-3-0-3-5---5-0-3-0-0-0-3-0-0-0-| 

F |-------------------------------------------------------------------------------| 
C |-------------------------------------------------------------------------------| 
G#|-------------------------------------------------------------------------------| 
D#|-10-10-10-7-10-7-7-7-10-10-10-7-10-7---10-10-10-7-10-7-7-7-10-10-10-7-10-7-----| 
A#|-10-10-10-7-10-7-7-7-10-10-10-7-10-7---10-10-10-7-10-7-7-7-10-10-10-7-10-7-----| 
D#|-10-10-10-7-10-7-7-7-10-10-10-7-10-7---10-10-10-7-10-7-7-7-10-10-10-7-10-7-0-1-| 

SECTION 3 
Both Guitars 
F |----------------------------------------------------------------| 
C |----------------------------------------------------------------| 
G#|----------------------------------------------------------------| 
D#|------------------------------------------------------x-x-x-x-x-| 
A#|------------------------------------------------------x-x-x-x-x-| 
D#|-3-3-3-3-3-0-0-0-3-3-3-3-3-0----3-3-3-3-3-0-0-0-3-3-3-x-x-x-x-x-| 

F |-----------------------------------------------------------------| 
C |-----------------------------------------------------------------| 
G#|-----------------------------------------------------------------| 
D#|-------------------------x-x-x-x---------------------x-x-x-------| 
A#|-------------------------x-x-x-x---------------------x-x-x-------| 
D#|-3-3-3-3-3-0-0-0-3-3-3-3-x-x-x-x-3-3-3-3-3-0-0-0-3-3-x-x-x-6-1-3-| 

TRANSITION 
Guitar 1 
F |-------------------------------------------------------------| 
C |-------------------------------------------------------------| 
G#|-------------------------------------------------------------| 
D#|-------------------------------------------------------------| 
A#|-------------------------------------------------------------| 
D#|-0-0-0-0-0-0-0-0-0-0-0-0-0-0---------------------------------| 
|| 
Guitar 2 
F |-------------------------------------------------------------| 
C |-------------------------------------------------------------| 
G#|-------------------------------------------------------------| 
D#|-------------------------------------------------------------| 
A#|-------------------------------------------------------------| 
D#|-------------------------------0-0-0-0-0-0-0-0-0-0-0-0-0-0---| 

SECTION 4 
Both Guitars 
F |---------------------------------------------------------------| 
C |---------------------------------------------------------------| 
G#|---------------------------------------------------------------| 
D#|---------------------------------------------------------------|x3 
A#|---------------------------------------------------------------| 
D#|-0-0-0-0-0-0-0-0-0-0-0-0-0-0---0-0-0-0-0-0-0-0-0-0-0-0-0-6-5-1-| 

SECTION 5 
Guitar 1 
F |---------------------------------| 
C |---------------------------------| 
G#|---------------------------------| 
D#|---------------------------------|x4 
A#|-----9-9-6-6-----------------0-0-|(let off mutes on 4th repeat) 
D#|-5-5---------8-8-5-5-8-8-3-3-----| 
|| . . . . . . . . . . . . . . . . 
|| 
Guitar 2 (slide guitar) 
F |-/12~----\--/15~----\--/19~----\-----/(slide-above-frets)\-| 
C |-/12~----\--/15~----\--/19~----\---------------------------| 
G#|-----------------------------------------------------------| 
D#|-----------------------------------------------------------| 
A#|-----------------------------------------------------------| 
D#|-----------------------------------------------------------| 

SECTION 6 
Both Guitars 
F |-------------------------------------------------| 
C |-------------------------------------------------| 
G#|-------------------------------------------------| 
D#|-16-13-13-13-16-13-13-13-16-16-13-16-------------| 
A#|-16-13-13-13-16-13-13-13-16-16-13-16-12-13-12----| 
D#|-16-13-13-13-16-13-13-13-16-16-13-16----------13-| 

F |-------------------------------------------------| 
C |-------------------------------------------------| 
G#|----------------------------------------14-13----| 
D#|-16-13-13-13-16-13-13-13-13-13-13-13-13-14-13-13-| 
A#|-16-13-13-13-16-13-13-13-13-13-13-13-13-------13-| 
D#|-16-13-13-13-16-13-13-13-13-13-13-13-13-------13-| 

F |-------------------------------------------------| 
C |-------------------------------------------------| 
G#|-------------------------------------------------| 
D#|-16-13-13-13-16-13-13-13-16-16-13-16-------------| 
A#|-16-13-13-13-16-13-13-13-16-16-13-16-12-13-12----| 
D#|-16-13-13-13-16-13-13-13-16-16-13-16----------13-| 

F |---------------------------------------------| 
C |---------------------------------------------| 
G#|---------------------------------------------| 
D#|-16-13-13-13-16-13-13-13-12-12-12-9-12-9-9-9-| 
A#|-16-13-13-13-16-13-13-13-12-12-12-9-12-9-9-9-| 
D#|-16-13-13-13-16-13-13-13-12-12-12-9-12-9-9-9-| 

REPEAT SECTION 6 

TRANSITION 2 
Both Guitars 
F |--------------------| 
C |--------------------| 
G#|--------------------| 
D#|-12-12-12-9-12-9----| 
A#|-12-12-12-9-12-9----| 
D#|-12-12-12-9-12-9----| 

SECTION 7 
Both Guitars 
F |-----------------------------------------------------------------------------------------| 
C |-----------------------------------------------------------------------------------------| 
G#|-----------------------------------------------------------------------------------------| 
D#|-------------------------------------------------------------------------------x-x-x-x-x-| 
A#|-------------------------------------------------------------------------------x-x-x-x-x-| 
D#|-3-3-3-3-3-0-0-0-3-3-3-3-3-0----3-3-3-3-3-0-0-0-3-3-3-3-3-0----3-3-3-3-3-0-0-0-x-x-x-x-x-| 

SECTION 8 
Both Guitars (play parentheses 2nd time) 
F |---------------------------------------------------------------------| 
C |---------------------------------------------------------------------| 
G#|---------------------------------------------------------------------| 
D#|---------------------------------------------------------------------|x2 
A#|-0-0-3-5b6r5p3-5p3---0-3-5-3-0--0-0-3-5b6r5p3-5p3--0--55555(5555555)-| 
D#|---------------------------------------------------------------------| 

SECTION 9 
Rhythm Guitar (play parentheses 1st time) 
F |------------------------------------------------------------------------| 
C |------------------------------------------------------------------------| 
G#|------------------------------------------------------------------------| 
D#|------------------------------------------------------------------------|x2 
A#|------------------------------------------------------------------------| 
D#|-5-5-8-10b11r10-10p8---5-8-10-8-5--5-5-8-10b11r10-10p8--5--(1010101010)-| 
|| 
Lead Guitar 1 
F |----------------------------------20b21-20-18-22--------20-20b21r20p18-20-18----| 
C |-------------------------------------------------20-20-----------------------20-| 
G#|--------------------------------------------------------------------------------| 
D#|-10bbb12---10b12r10p8-----------------------------------------------------------| 
A#|----------------------10--8--10-------------------------------------------------| 
D#|--------------------------------------------------------------------------------| 
|| 
Lead Guitar 2 
F |----------------------------------20b21-20-18-22--------20-20b21r20p18-20-18----| 
C |-------------------------------------------------20-20-----------------------20-| 
G#|--------------------------------------------------------------------------------| 
D#|--------------------------------------------------------------------------------| 
A#|--7bbb8-----------7b8---7b8--10-------------------------------------------------| 
D#|--------------------------------------------------------------------------------| 

REPEAT SECTION 1 

SECTION 10 
Both Guitars 
F |-----------------------------------------------------------------| 
C |-----------------------------------------------------------------| 
G#|-----------------------------------------------------------------| 
D#|-----------------------------------------------------------------| 
A#|---------------------------3-------------------------------------| 
D#|-3-0-0-0-3-0-0-0-3-3-0-3-5---5-0-3-0-0-0-3-0-0-0-0-0-0-0-0-6-5-1-| 

F |-------------------------------------------------| 
C |-------------------------------------------------| 
G#|-------------------------------------------------| 
D#|-------------------------------------------------| 
A#|---------------------------3---------------------| 
D#|-3-0-0-0-3-0-0-0-3-3-0-3-5---5-0-3-0-0-0-3-0-0-0-| 

F |---------------------------------------------------------------------------| 
C |---------------------------------------------------------------------------| 
G#|---------------------------------------------------------------------------| 
D#|-10-10-10-7-10-7-7-7-10-10-10-7-10-7---10-10-10-7-10-7-7-7-10-10-10-7-10-7-| 
A#|-10-10-10-7-10-7-7-7-10-10-10-7-10-7---10-10-10-7-10-7-7-7-10-10-10-7-10-7-| 
D#|-10-10-10-7-10-7-7-7-10-10-10-7-10-7---10-10-10-7-10-7-7-7-10-10-10-7-10-7-| 

Fun song, but the tuning is definitely strange. All I ask is that you don't 
rate this poorly if you don't like the tuning, as it might change later. 
Please rate & comment. 
Thanks, 
millarso 

************************************ 

| /   slide up 
| \   slide down 
| h   hammer-on 
| p   pull-off 
| ~   vibrato 
| +   harmonic 
| x   Mute note 
| b   Bend 
| pb  Pre-bend 
| br  Bend release 
| pbr Pre-bend release 
| brb Bend release bend 

************************************ 
		  

See also:

tabs The Doors - People Are Strange tabs The Offspring - The Kids Aren't Alright tabs Jack Johnson - Upside down tabs Guns N' Roses - November Rain (Ver. Acoustic) tabs Jack Johnson - Banana Pancakes (ver. 3) tabs Guns N' Roses - You Could Be Mine
e-chords

Other versions:

tabs Every Time I Die - Decayin' With The Boys?
auto scroll beats size up size down change color hide chords drawings
tab show chords e-chords YouTube Clip e-chords hide all tabs e-chords go to top tab

share