Every Time I Die

A Strange Loop

Every Time I Die

tabs

by  ABELAMIN

save to print version add songbook text version e-mail correct tuner
chordsukulelecavacokeyboardtabbassdrumsharmonicaflute Guitar Pro
close

there isn't a video lesson for this song

chords

A Strange Loop

	  		
Part 1 (Intro) 
e|---------------------------------------------------------------------------| 
B|---------------------------------------------------------------------------| 
G|---------------------------------------------------------------------------| 
D|--3-00-2-00-3\2-00-3-00-2-00-3-00-2-00-3\2-00-3-00-2-00-3\2----------------| (Repeat x3) 
A|--3-00-2-00-3\2-00-3-00-2-00-3-00-2-00-3\2-00-3-00-2-00-3\2----------------| 
D|--3-00-2-00-3\2-00-3-00-2-00-3-00-2-00-3\2-00-3-00-2-00-3\2----------------| 
      ..   ..     ..   ..   ..   ..   ..     ..   ..   .. 

(I am the mason and I am the stone...) 
e|---------------------------------------------------------------------------| 
B|---------------------------------------------------------------------------| 
G|---------------------------------------------------------------------------| 
D|---------------------(*********Bass/Drums**********)-----------------------| 
A|---------------------------------------------------------------------------| 
D|---------------------------------------------------------------------------| 
**In this part,  towards the end, it sounds like they're placing their hands on the B 
and high e strings separately way up high, like at the the pickups, muting them, and 
picking as they move their hands down the neck.** 


Part 2 (Death lives...) 
e|---------------------------------------------------------------------------| 
B|---------------------------------------------------------------------------| 
G|---------------------------------------------------------------------------| 
D|--6---------6--------------6---------6-------------------------------------| (Repeat x2) 
A|---------------------------------------------------------------------------| 
D|----55-6-55---55-6-55-8985---55-6-55---55-6-55-8985------------------------| 


Part 3 (MARCH, MARCH, MARCH, MARCH...) 
e|---------------------------------------------------------------------------| 
B|---------------------------------------------------------------------------| 
G|---------------------------------------------------------------------------| 
D|--6-00-5-00-3\2-6-00-5-00-3\2-6\5/6-00-5-00-3\2--6-----3-------------------| (Repeat x2) 
A|--6-00-5-00-3\2-6-00-5-00-3\2-6\5/6-00-5-00-3\2----------------------------| 
D|--6-00-5-00-3\2-6-00-5-00-3\2-6\5/6-00-5-00-3\2----565---222---------------| 
      ..   ..       ..   ..           ..   ..           ( *232* ) <----2nd time through 

Part 4 (Hang your head, you are overwhelmed...) 
e|---------------------------------------------------------------------------| 
B|---------------------------------------------------------------------------| 
G|---------------------------------------------------------------------------| 
D|-----22--------223----22------44-------------------------------------------| (Repeat x2) 
A|-------3344-------------3322-----------------------------------------------| 
D|--222------2233----222------33--230----------------------------------------| 


REPEAT PART 1 (Intro) x2 


Part 5 (I am the mason and I am the stone...) 
e|---------------------------------------------------------------------------| 
B|---------------------------------------------------------------------------| 
G|---------------------------------------------------------------------------| 
D|--3---------3--------------3---------3-------------------------------------| (Repeat x2) 
A|---------------------------------------------------------------------------| 
D|----22-3-22---22-3-22-5652---22-3-22---22-3-22-5652------------------------| 


REPEAT PART 2 x2 (Death reigns...) 

REPEAT PART 3 x2 (It is ours, ours ours, ours...) 


Part 6 (MARCH, MARCH, MARCH, MARCH...) 
e|---------------------------------------------------------------------------| 
B|---------------------------------------------------------------------------| 
G|---------------------------------------------------------------------------| 
D|--8-00-7-00-5\4-8-00-7-00-5\4-8\7/8-00-7-00-5\4--8-----5-------------------| (Repeat x2) 
A|--8-00-7-00-5\4-8-00-7-00-5\4-8\7/8-00-7-00-5\4----------------------------| 
D|--8-00-7-00-5\4-8-00-7-00-5\4-8\7/8-00-7-00-5\4----787---444---------------| 
      ..   ..       ..   ..           ..   ..           ( *450* ) <----2nd time through 

Part 7 (Live forever just once...) 
e|---------------------------------------------------------------------------| 
B|---------------------------------------------------------------------------| 
G|---------------------------------------------------------------------------| 
D|--222------222------222------222~~~----------------------------------------| 
A|--222------222------222------222~~~( *Let ring* )--------------------------| 
D|--222------222------222------222~~~----------------------------------------| 
                             

Part 4B (Hang your head, you're all overwhelmed...) 
e|---------------------------------------------------------------------------| 
B|---------------------------------------------------------------------------| 
G|---------------------------------------------------------------------------| 
D|-----22--------223-----22------44------------------------------------------| (Repeat x2) 
A|-------3344--------------3322----------------------------------------------| 
D|--222------2233-----222------33--230---------------------------------------| 
                                ( *22* ) <----2nd time through, pick 2nd fret twice, then cut it) 

*Pre-Breakdown Riffage* 
e|---------------| 
B|---------------| 
G|---------------| 
D|-------1-------| 
A|----333-2------| 
D|--22-----------| 


*BREAKDOWN CITY* (I AM THE MASON AND I AM THE STONE...) 
e|-----------------0----------------------------------------0------------------------------| 
B|------0----------1-----0-----------------------0----------1-----0------------------------| 
G|------1-001------0-----1-001-------------------1-001------0-----1-001--------------------| 
D|--3-2-0-001--2-3--3-2--0-001-2-------1p0--3-2--0-001--2-3--3-2--0-001-2~~~(            )-| 
A|--3-2---001--2-3--3-2----001-2----333-----3-2----001--2-3--3-2----001-2~~~( *Let ring* )-| 
D|--3-2--------2-3-------------2--22--------3-2---------2-3-------------2~~~(            )-| 

(The web that will steer you has been spun...) 
e|-----------------0----------------------------------------0--------------0----------0------------------| 
B|------0----------1-----0-----------------------0----------1-----0--------1----------1------------------| 
G|------1-001------0-----1-001-------------------1-001------0-----1-00-----0-001------0------------------| 
D|--3-2-0-001--2-3--3-2--0-001-2-------1p0--3-2--0-001--2-3--3-2--0-00-3-2---001--2-3--3-2--3-333-3-333--| 
A|--3-2---001--2-3--3-2----001-2----333-----3-2----001--2-3--3-2----00-3-2---001--2-3--3-2--3-333-3-333--| 
D|--3-2--------2-3-------------2--22--------3-2---------2-3------------3-2--------2-3-------3-333-3-333--| 
                                                                                              ...   ... 

That's it - awesome song.  Comment or email with corrections. 




************************************ 

| /   slide up 
| \   slide down 
| h   hammer-on 
| p   pull-off 
| ~   vibrato 
| +   harmonic 
| x   Mute note 
| b   Bend 
| pb  Pre-bend 
| br  Bend release 
| pbr Pre-bend release 
| brb Bend release bend 

************************************ 
		  

Full key step upFull key step up
Half key step upHalf key step up
Half key step downHalf key step down
Full key step downFull key step down
hide glossary

See also:

tabs Jack Johnson - Good People tabs Rage Against The Machine - Killing In The Name (ver. 2) tabs Blue Oyster Cult - Dont Fear The Reaper tabs R.E.M. - Losing my religion tabs Smashing Pumpkins - Today tabs Foo Fighters - Learn to Fly (acoustic version)
e-chords

Other versions:

tabs Every Time I Die - A Strange Loop
auto scroll beats size up size down change color hide chords drawings
tab show chords e-chords YouTube Clip e-chords hide all tabs e-chords go to top tab

share