Evanescence

home > Evanescence

Sweet sacrifice Tab

Evanescence

Difficulty: BeginnerBeginner

by europeu

tuner correct add songbook print version text version save to e-mail
chordsukulelecavacokeyboardtabbassdrumsharmonicsflute Guitar Pro
chords

Sweet sacrifice

Year: 2006 - Album: Open Door

  		Tuning: Drop d and tuned down half step 
 
 
INTRO: 
E|---------------------------------|---------------------------------| 
B|---------------------------------|---------------------------------| 
G|---------------------------------|---------------------------------| 
D|-5-5-5--5-5-5-5-5--5-5-5-5-5-5-5-|-1-1-1--1-1-1-1-1--1-1-1-1-0-0-0-| 
A|-5-5-5--5-5-5-5-5--5-5-5-5-5-5-5-|-1-1-1--1-1-1-1-1--1-1-1-1-0-0-0-| 
D|-5-5-5--5-5-5-5-5--5-5-5-5-5-5-5-|-1-1-1--1-1-1-1-1--1-1-1-1-0-0-0-| 
 
'Fear is only in our minds' 
E|--------------------------------------------| 
B|--------------------------------------------| 
G|--------------------------------------------| 
D|-12---10-12---13---12---13---10--10---8h10--| 
A|---10-------10---10---10---10---8---8-------| 
D|--------------------------------------------| 
 
 
PRE VERSE fill: 
E|--------------|---------------| 
B|--------------|---------------| 
G|--------------|---------------| 
D|-3-3--6-6-5-3-|--3-3--6-6-5-3-| 
A|-3-3--6-6-5-3-|--3-3--6-6-5-3-| 
D|-3-3--6-6-5-3-|--3-3--6-6-5-3-| 
 
E|-----------------------| 
B|-----------------------| 
G|-----------------------| 
D|---11b12--------15b1---| 
A|-----------------------| 
D|-----------------------| 
 
VERSE (You poor sweet innocent thing): 
E|------------------|---------------------------|------------------|---------------------------| 
B|------------------|---------------------------|------------------|---------------------------| 
G|------------------|---------------------------|------------------|---------------------------| 
D|-3-3-6-6-3-3-6-5--|-3-3-6-6-3-3-6-5--3--3-3-3-|-3-3-6-6-3-3-6-5--|-3-3-6-6-3-3-6-5--1--1-1-1-| 
A|-3-3-6-6-3-3-6-5--|-3-3-6-6-3-3-6-5--3--3-3-3-|-3-3-6-6-3-3-6-5--|-3-3-6-6-3-3-6-5--1--1-1-1-| 
D|-3-3-6-6-3-3-6-5--|-3-3-6-6-3-3-6-5--3--3-3-3-|-3-3-6-6-3-3-6-5--|-3-3-6-6-3-3-6-5--1--1-1-1-| 
 
 
PRE Chorus (One day I'm gonna forget your name): 
E|---------------------------------|----------------------------------------------------| 
B|---------------------------------|----------------------------------------------------| 
G|---------------------------------|----------------------------------------------------| 
D|-5-5-5--5-5-5-5-5--5-5-5-5-5-5-5-|-1-1-1--1-1-1-1-1--1-1-1-1--------------------------| 
A|-5-5-5--5-5-5-5-5--5-5-5-5-5-5-5-|-1-1-1--1-1-1-1-1--1-1-1-1--------------------------| 
D|-5-5-5--5-5-5-5-5--5-5-5-5-5-5-5-|-1-1-1--1-1-1-1-1--1-1-1-1-1p0-0--0-1-0-1p3p1-0-1-0-| 
 
Chorus (Fear is only in our minds): 
E|--------------------------------------------| 
B|--------------------------------------------| 
G|--------------------------------------------| 
D|-12---10-12---13---12---13---10--10---8h10--| 
A|---10-------10---10---10---10---8---8-------| 
D|--------------------------------------------| 
 
 
POST 2.Chorus: 
E|------------------|------------------|------------------|------------------------| 
B|------------------|------------------|------------------|------------------------| 
G|------------------|------------------|------------------|------------------------| 
D|-3h5-5-5--3h5-5-5-|-3h6-6-6--3h6-6-6-|-5h8-8-8--5h8-8-8-|-6h10-10-10--6h10-10-10-| 
A|-3h5-5-5--3h5-5-5-|-3h6-6-6--3h6-6-6-|-5h8-8-8--5h8-8-8-|-6h10-10-10--6h10-10-10-| 
D|-3h5-5-5--3h5-5-5-|-3h6-6-6--3h6-6-6-|-5h8-8-8--5h8-8-8-|-6h10-10-10--6h10-10-10-| 
 
 
Fill: 
E|----------------| 
B|----------------| 
G|----------------| 
D|-13--13--13--13-| 
A|-13--13--13--13-| 
D|-13--13--13--13-| 
 
 
OUTRO VERSE: 
E|------------------|---------------------------|------------------|---------------------------| 
B|------------------|---------------------------|------------------|---------------------------| 
G|------------------|---------------------------|------------------|---------------------------| 
D|-3-3-6-6-3-3-6-5--|-3-3-6-6-3-3-6-5--3--3-3-3-|-3-3-6-6-3-3-6-5--|-3-3-6-6-3-3-6-5--1--1-1-1-| 
A|-3-3-6-6-3-3-6-5--|-3-3-6-6-3-3-6-5--3--3-3-3-|-3-3-6-6-3-3-6-5--|-3-3-6-6-3-3-6-5--1--1-1-1-| 
D|-3-3-6-6-3-3-6-5--|-3-3-6-6-3-3-6-5--3--3-3-3-|-3-3-6-6-3-3-6-5--|-3-3-6-6-3-3-6-5--1--1-1-1-| 
 
E|---------------------------|---------------------------|---------------------------|---------------------------| 
B|---------------------------|---------------------------|---------------------------|---------------------------| 
G|---------------------------|---------------------------|---------------------------|---------------------------| 
D|-3-3-6-6-3-3-6-5--3h5--3h5-|-3-3-6-6-3-3-6-5--3--3-3-3-|-3-3-6-6-3-3-6-5--3h5--3h5-|-3-3-6-6-3-3-6-5--1--1-1-1-| 
A|-3-3-6-6-3-3-6-5--3h5--3h5-|-3-3-6-6-3-3-6-5--3--3-3-3-|-3-3-6-6-3-3-6-5--3h5--3h5-|-3-3-6-6-3-3-6-5--1--1-1-1-| 
D|-3-3-6-6-3-3-6-5--3h5--3h5-|-3-3-6-6-3-3-6-5--3--3-3-3-|-3-3-6-6-3-3-6-5--3h5--3h5-|-3-3-6-6-3-3-6-5--1--1-1-1-| 
 
  
  
    
 
 
 
  

	  

Search Paypal
auto scroll beats size up size down change color hide chords drawings
tab show chords e-chords YouTube Clip e-chords hide all tabs e-chords go to top tab