Evanescence

My imortal

Evanescence

tabs Expert expert

by  BLUE_ILLIUM

save to print version add songbook text version e-mail correct tuner
chordsukulelecavacokeyboardtabbassdrumsharmonicaflute Guitar Pro
close

there isn't a video lesson for this song

chords

My imortal

	  		intro/verse 
 
B b    {1}{3}{3}{3}{1}{1} 
  
Dm   {1}{3}{2}{0}{0}{0} 
 
      Bb                                              Dm 
e----------------------1------------------------------------1--------------------- 
B--------------3-------------3----------------------3-----------3-------------- 
G--------3-------------------------------------2--------------------------------- 
D---3------------------------------------0--------------------------------------- 
A---------------------------------------------------------------------------------- 
E---------------------------------------------------------------------------------- 
 
        Bb                                              Dm 
e----------------------1--------------1---------------------1-------------------- 
B--------------3-------------3------------------------3----------3-------------- 
G--------3---------------------------------------2-------------------------------- 
D---3--------------------------------------0-------------------------------------- 
A----------------------------------------------------------------------------------- 
E----------------------------------------------------------------------------------- 

		  

Full key step upFull key step up
Half key step upHalf key step up
Half key step downHalf key step down
Full key step downFull key step down
hide glossary

See also:

tabs Linkin Park - In The End (intro) tabs System Of A Down - Radio Video tabs System Of A Down - Mr. Jack tabs System Of A Down - Kill Rock N Roll tabs Korn - Freak On A Leash tabs System Of A Down - Forest
e-chords

Other versions:

tabs Evanescence - My imortal
auto scroll beats size up size down change color hide chords drawings
tab show chords e-chords YouTube Clip e-chords hide all tabs e-chords go to top tab

share