Evanescence

home > Evanescence

My immortal/complete with solo Tab

Evanescence

Difficulty: BeginnerBeginner

by europeu

tuner correct add songbook print version text version save to e-mail
chordsukulelecavacokeyboardtabbassdrumsharmonicsflute Guitar Pro
chords

My immortal/complete with solo

  		this is about as close as I can get to the song.   A bit of chords and  
the solo, great song, fairly simple to play. 
 
 
Piano intro  
A C#m  
e----------5-------------------4--------  
B------5-------5-----------5-------5----  
G----6---6---6---6-------6---6---6---6   ?- x2  
D---------------------6-----------------  
A-7-------------------------------------  
E--------------------------------------- 
 
 
Verse  
Main riff A C#m   
e----------5-------------------4--------  
B------5-------5-----------5-------5----  
G----6---6---6---6-------6---6---6---6   ?- x4  
D---------------------6-----------------  
A-7-------------------------------------  
E-5------------------------------------- 
 
 
Pre-Chorus  
F#m                                  C#m 
These wounds wont seem to heal   
F#m                  C#m 
this pain is just to real 
F#m                                E                  E 
There's just too much that time can not erase 
  
Chorus 
 
F#m           D            E             C#m  
When you cried I'd wipe away all of your tears  
F#m          D                   E            C#m 
When you screamed I'd fight away all of your fears 
F#m        D             E                   C#m 
And I've held your hand through all of these years  
F#m          D      E 
but you still have all of me  
 
Verse  
Pre-Chorus  
Chorus  
 
 
Final Interlude 
D                 F#m                  E                        D 
I've tried so hard to tell myself that you're gone  
F#m                          C#m 
but though you're still with me  
D                   E                 F#m           D       E      C#m  
I've been alone all along  
 
solo   note: start the solo somewhat early, its a short solo, and  
you go into the Chorus afterwards 
e---------------------------------------------  
B-------10h12-10---10/9-----------------------  
G-11h13------------------11---11h14-13-13p11-9  
D---------------------------------------------  
A---------------------------------------------  
E--------------------------------------------- 
 
 
e----------------------------------9--9h10-9--------------  
B-14-12-10/9/10---10/9------10h12------------14-12-10/9/10  
G----------------------11---------------------------------  
D---------------------------------------------------------  
A---------------------------------------------------------  
E---------------------------------------------------------  
 
Chorus 
 
 
 

	  

Full key step upFull key step up
Half key step upHalf key step up
Half key step downHalf key step down
Full key step downFull key step down
Search Paypal
auto scroll beats size up size down change color hide chords drawings
tab show chords e-chords YouTube Clip e-chords hide all tabs e-chords go to top tab