Evanescence

home > Evanescence

Haunted-Anywhere But Home (solo) Tab

Evanescence

Difficulty: EasyEasy

by Slash+teen

tuner correct add songbook print version text version save to e-mail
chordsukulelecavacokeyboardtabbassdrumsharmonicsflute Guitar Pro
chords

Haunted-Anywhere But Home (solo)

  		este solo é bem fácil é só prestar atenção no dvd ou no cd e vc terá o resultado  
é só acompanhar que vc saberá onde encaixar cada nota  
  
e/------------------------12-11---12-11----12-11----------------- 
b/---------------------12-------12------12----------------------- 
g/-9-8--~~-4/9-8/11~~-------------------------------------------- 
d/-----9--------------------------------------------------------- 
a/--------------------------------------------------------------- 
e/---------------------------------------------------------------  
  
e/-12/19----19/21~~-19h21p19-17-16-14---------12-12-12/14/12-----  
b/-------17---------------------------12-12/14--------------12/14  
g/---------------------------------------------------------------  
d/---------------------------------------------------------------  
a/---------------------------------------------------------------  
e/--------------------------------------------------------------- 
  
e/---------------------------------------------------------------  
b/--------------------------------12----------------------------- 
g/--11-11-11/9-9-9-9-9/8/6h8----9----9~~9-------------------------  
d/---------------------------9~~---------------------------------  
a/---------------------------------------------------------------  
e/---------------------------------------------------------------  
  
eu fiz assim nao tenho certeza se é imoral ou nao nao sei só tentei ajudar 

!!! 


não se espante é só isso não é grande este solo e nem  
difícil o negócio o segredo é praticar escutando a música  
aí quando estiver mais ou menos aconpanhe junto com a música  
a parte do solovc esculta e tenta acompanhar falô? tchau  
e até a proxima qualquer dúvida deixe mensagem noseguinte  
e-mail:http://[email protected]   
deixe mensagem e o seu email para eu poder escrever para vc!   


	  

Search Paypal
auto scroll beats size up size down change color hide chords drawings
tab show chords e-chords YouTube Clip e-chords hide all tabs e-chords go to top tab