Evanescence

home > Evanescence

Farther Away Tab

Evanescence

Difficulty: nolevelnolevel

by ssmarculinossbb

tuner correct add songbook print version text version save to e-mail
chordsukulelecavacokeyboardtabbassdrumsharmonicsflute Guitar Pro
chords

Farther Away

Year: 2003 - Album: Anywhere But Home

  		 
Riff: 
E|-------------|-----------------|--------------|-----------------| 
B|-------------|-----------------|--------------|-----------------| 
G|--2-----4----|--------4--5--4--|--7--7--7--5--|--5--5--4--5--4--| 
D|--2--2--4----|--2--2--4--5--4--|--7--7--7--5--|--5--5--4--5--4--| 
A|--0--2--2----|--2--2--2--3--2--|--5--5--5--3--|--3--3--2--3--2--| 
E|-----0-------|--0--0-----------|--------------|-----------------| 
 
Solo: 
E|--15-15-15----15-15-15--14-14-14----14-14-14-12-12-12-12-12-12-12-12-12-12-| 
B|-----------12--------------------12----------------------------------------| 
G|---------------------------------------------------------------------------| 
D|---------------------------------------------------------------------------| 
A|---------------------------------------------------------------------------| 
E|---------------------------------------------------------------------------| 
 
E|--15-15-15----15-15-15--17-17-17----14-14-14-15-15-15----------------------| 
B|-----------12-----------------------------------------12-12-12-12-12-12-12-| 
G|---------------------------------------------------------------------------| 
D|---------------------------------------------------------------------------| 
A|---------------------------------------------------------------------------| 
E|---------------------------------------------------------------------------| 
 
Acho que  isso... 

	  

Search Paypal
auto scroll beats size up size down change color hide chords drawings
tab show chords e-chords YouTube Clip e-chords hide all tabs e-chords go to top tab