Evanescence

home > Evanescence

Even in Death Tab

Evanescence

Difficulty: IntermediateIntermediate

by Himura

tuner correct add songbook print version text version save to e-mail
chordsukulelecavacokeyboardtabbassdrumsharmonicsflute Guitar Pro
chords

Even in Death

  		Evanescence - Even in death (live @ Rock am Ring 2003) 
 
! Guitarra afinada em DROP D ( com apenas a 
primeira corda em D) ! 
 
Intro do refrão parte 1 e 2: 
1)"they took you away from me, but now I'll taken you home" 
2)''they don't know you can't live, they don't hear you singing to me'' 
    
e|-------------------------------------| 
B|-------------------------------------| 
G|-------------------------------------| 
D|-------------------------------------| 
A|--(5)-------(3)-------(5)-----7-7-8-7| 
D|-5----575--3----3/5--5----5/7--------| 
 
{Refrão}  
 
e|--------------------|----------------| 
B|--------------------|----------------| 
G|-7---5---3---2------|-7---5---3---2--| 
D|-7---5---3---2-(3)--|-7---5---3---2--| 
A|-5---3---1---0-(4)--|-5---3---1---0--| 
D|--------------------|----------------| 
 
 
 
{Refrão} parte 2.                       "...and I can love you..." 
 
e|--------------------|----------------|------------------------| 
B|--------------------|----------------|------------------------| 
G|-7---5---3---2------|-7---5---3---2--|-3----------------------| 
D|-7---5---3---2-(3)--|-7---5---3---2--|-3---3---5--------------| 
A|-5---3---1---0-(4)--|-5---3---1---0--|-1---3---5---(6)-7/8-7--| 
D|--------------------|----------------|-----3---5---(6)--------| 
    
 
 
Solo: 
 
 
e|--------------------------------------------------------------------| 
B|--------------------------------------------------------------------| 
G|--------------------------------------------------------------------| 
D|-------7--------------7----------------5--------7----------------7--| 
A|-5-7-8---8-7-5-5--7-8---8-7-5-7--5-7-8----5-7-8---8-7-5-5--7-8-7----| 
D|--------------------------------------------------------------------| 
 
 
Outro (2 guitarras): 3x 
 
e|-----------------------------| 
B|-----------------------------| 
G|-----------------------------| 
D|-0-0-7-8-7-5p7--0-0-7-8-7-5--| 
A|-0-0-7-8-7-5p7--0-0-7-8-7-5--| 
D|-0-0-7-8-7-5p7--0-0-7-8-7-5--| 
 
 
Solo 2 (Ben): (distorcido com wha) 
 
e|--------------------------------------------------------------------------| 
B|--------------------------------------------------------------------------| 
G|--------------------------------------------------------------------------| 
D|-7-----------5---------------5-------------7-7--7-5-7-5----5--------------| 
A|---8-7-5-7-8---8-7-7-7p8-7-8---7-8-7/8-7-8---------------8---8-7-8-7-5-3--| 
D|--------------------------------------------------------------------------| 
 
e|----------------------------------------------------------------------------------------------| 
B|----------------------------------------------------------------------------------------------| 
G|----------------------------------------------------------------------------------------------| 
D|-------------------5-5-5-------------------5-5-5-7-7-7-5-5-5-7-7-7-8-8-8-7-7-7-8-8-8-10-10-10-| 
A|-5-5-5-7-7-7-8-8-8-------8-8-8-7-7-7-8-8-8----------------------------------------------------| 
D|----------------------------------------------------------------------------------------------| 
 
			    "and I can love you anymore than I do"	 
e|-------------------------|------------------------------------------------| 
B|-------------------------|-6-6-11-10-8-6---6-8-8-6-8-10-(10/11/10/11/10)--| 
G|-------------------------|---------------5--------------------------------| 
D|-------------7-9-7-6-6/7-|------------------------------------------------| 
A|-8-8-8-10-10-------------|------------------------------------------------| 
D|-------------------------|------------------------------------------------| 
 
 
 
{Refrão} parte 1. e 2. 
 
final: 
 
e|---| 
B|---| 
G|---| 
D|-0-| 
A|-0-| 
D|-0-| 
	  

Full key step upFull key step up
Half key step upHalf key step up
Half key step downHalf key step down
Full key step downFull key step down
Search Paypal
auto scroll beats size up size down change color hide chords drawings
tab show chords e-chords YouTube Clip e-chords hide all tabs e-chords go to top tab