Evanescence

home > Evanescence

Call me when you're sober Tab

Evanescence

Difficulty: BeginnerBeginner

by depechemode101

tuner correct add songbook print version text version save to e-mail
chordsukulelecavacokeyboardtabbassdrumsharmonicsflute Guitar Pro
chords

Call me when you're sober

Year: 2006 - Album: Open Door

  		Artist:            Evanescence 
Song:              Call Me When You're Sober 
Tabbed By:         Jose Jankunas ([email protected]) 
 
Note: If you're gonna play the song in acoustic guitar play the complete chords... 
 
the song starts with the Chorus played on piano, here are the chords for guitar: 
 
    Em C  Em D# G  D# G  C    G 
e|-------------------------------| 
B|-------------------------------| 
G|-----5-----------------5-------| 
D|--2--5--2--8--5--8--5--5----5--| 
A|--2--3--2--6--5--6--5--3----5--| 
E|--0-----0--6--3--6--3-------3--| 
 
Verse: 
Note: I wrote 2 different guitars but in the original song they play both riffs with one guitar 
    D  Em 
e|--------| 
B|--------| 
G|--------| 
D|--7--9--| 
A|--5--7--| 
E|--5--7--| 
 
(GTR 02) 
e|--------------| 
B|--12----------| 
G|-----12-11-9--| 
D|--------------| 
A|--------------| 
E|--------------| 
 
Pre Chorus: 
    C  B 
e|--------| 
B|--------| 
G|--5--4--| 
D|--5--4--| 
A|--3--2--| 
E|--------| 
 
Chorus: 
    Em C  Em D# G  D# G  C    G 
e|-------------------------------| 
B|-------------------------------| 
G|-----5-----------------5-------| 
D|--2--5--2--8--5--8--5--5----5--| 
A|--2--3--2--6--5--6--5--3----5--| 
E|--0-----0--6--3--6--3-------3--| 
 
-Verse 
-Pre Chorus 
-Chorus 
 
Bridge: 
(This first part has no guitar, but here are the guitar chords anyway) 
    C  Cm G  G  C  Cm G  A# G  A# 
e|--------------------------------| 
B|-----4-----------4--------------| 
G|--5--5--------5--5--------------| 
D|--5--5--5--5--5--5--5--8--5--8--| 
A|--3--3--5--5--3--3--5--8--5--8--| 
E|--------3--3--------3--6--3--6--| 
    You never... 
    A  D  Em   C  B  Em   A  D  Em   C    B 
e|-------------------------------------------| 
B|-------------------------------------------| 
G|----------------------------------------4--| 
D|--7--7--9----7--4--2----7--7--9----7----4--| 
A|--7--5--7----3--2--2----7--5--7----3----2--| 
E|--5--5--7----3--2--0----5--5--7----3-------| 
    How could I?! 
 
-Chorus 
 
At the end play a nice: 
e|------------3--| 
B|----------3----| 
G|--------0------| 
D|------0--------| 
A|----2----------| 
E|--3------------| 
instead of last chord =) 
 
ENJOY! 

	  

Full key step upFull key step up
Half key step upHalf key step up
Half key step downHalf key step down
Full key step downFull key step down
Search Paypal
auto scroll beats size up size down change color hide chords drawings
tab show chords e-chords YouTube Clip e-chords hide all tabs e-chords go to top tab