Evanescence

home > Evanescence

Bring Me to Life (ver. 2) Tab

Evanescence

Difficulty: BeginnerBeginner

by Himura

tuner correct add songbook print version text version save to e-mail
chordsukulelecavacokeyboardtabbassdrumsharmonicsflute Guitar Pro
chords

Bring Me to Life (ver. 2)

  		Evanescence Bring Me to Life 
 
Intro/Verso 
Obs: Na versão do CD essa intro é tocada 
por um piano. Já em várias apresentanções 
ao vivo é tocada pela guitarra, e continua 
sendo tocada por todo o verso 1, enquanto  
a guitarra 2 toca apenas o E grave solto. 
 
e ------------------------------------- 
B ------------------------------------- 
G ------------------------------------- 
D --9---7---9--10---14---9------------- 
A ------------------------------------- 
E ------------------------------------- 
                         
Verso 1 
 
  E5 
e ------------------------------------- 
B ------------------------------------- 
G ------------------------------------- 
D -22-22-22-22-2------22-22-222-------- 
A -22-22-22-22-2---2--32-32-320-------- 
D -00-00-00-00-0---0--00-00-000-------- 
 
   E/C  
e ------------------------------------- 
B ------------------------------------- 
G ------------------------------------- 
D -22-22-22-22-2---2--22-22-222-------- 
A -33-33-33-33-3---3--33-33-333-------- 
D -00-00-00-00-0---0--00-00-000-------- 
 
E5 
  Without a soul 
 
E/C  
my spirit's sleeping somewhere cold.  
 
E5                           E/C  
Until you find it there, and lead it back home  
 
 
Refrão 
 
 
   E5    G5   D5   C5 
e ---------------------- 
B ---------------------- 
G -------------7----5--- 
D --2-----5----7----5--- 
A --2-----5----5----3--- 
D --0-----3------------- 
 
 
E5 
   Wake me up inside 
G5 
   Wake me up inside 
D5 
   Call my name and 
C5                   
   Save me from the dark  
 
 
 
E5 
e ------------------------------------- 
B ------------------------------------- 
G ------------------------------------- 
D -22-22-22-22-2------22-22-222-------- 
A -22-22-22-22-2---2--32-32-320-------- 
D -00-00-00-00-0---0--00-00-000-------- 
 
 
    C5              D5               
e -------x--x-x-x-x----x--x-x-x-x 
B -------x--x-x-x-x----x--x-x-x-x 
G --5----x--x-x-x-x-7--x--x-x-x-x 
D --5----x--x-x-x-x-7--x--x-x-x-x 
A --3----x--x-x-x-x-5--x--x-x-x-x 
D -------x--x-x-x-x----x--x-x-x-x 
 
E5 
e ------------------- 
B ------------------- 
G ------------------- 
D -22-22-22-22-2---- 
A -22-22-22-22-2---2 
D -00-00-00-00-0---0 
   
C5    D5        E5  
Bring me to life 
 
 
------------ 
 
Verso 2 
 
 
  E5 
e ------------------------------------- 
B ------------------------------------- 
G ------------------------------------- 
D -22-22-22-22-----2--22-22-222-------- 
A -22-22-22-22-2---2--32-32-320-------- 
D -00-00-00-00-0---0--00-00-000-------- 
 
 E/C  
e ------------------------------------- 
B ------------------------------------- 
G ------------------------------------- 
D -22-22-22-22-2---2--22-22-222-------- 
A -33-33-33-33-3---3--33-33-333-------- 
D -00-00-00-00-0---0--00-00-000-------- 
 
E5                                E/C  
Now that I know what I'm without, you can't just leave me.  
     E5                     
Breathe into me and make me real.  
E/C  
    Bring me to life.  
 
 
 
--------------------- 
 
Bridge 
 
e --------------- 
B --------------- 
G --------------- 
D --2------------ 
A -----------2--- 
D -----2--3------ 
 
 
    C5  E5  D5  E5 
e --------------------------- 
B --------------------------- 
G --5--------7--------------- 
D --5----2---7---2----------- 
A --3----2---5---2--------2-- 
D -------0-------0--2--3----- 
 
   C5   E5  D5  B5 
e -------------------- 
B -------------------- 
G --5-------7---4----- 
D --5---2---7---4----- 
A --3---2---5---2----- 
D ------0------------- 
 
 
 
C5       E5                 D5 
Frozen inside without your touch,  
             E5  
without your love. Darling,  
C5    E5          D5             B5 
 Only you are the life among the dead...  
 
 
  E5 
e ------------------------------------- 
B ------------------------------------- 
G ------------------------------------- 
D -22-22-22-22-2------22-22-222-------- 
A -22-22-22-22-2---2--32-32-320-------- 
D -00-00-00-00-0---0--00-00-000-------- 
 
   E/C  
e ------------------------------------- 
B ------------------------------------- 
G ------------------------------------- 
D -22-22-22-22-2---2--22-22-222-------- 
A -33-33-33-33-3---3--33-33-333-------- 
D -00-00-00-00-0---0--00-00-000-------- 
 
 E5               
(All of this time, I can't believe I couldn't see  
 
Kept in the dark, but you were there in front of me.)  
E/C  
I've been sleeping a thousand years, it seems  
 
got to open my eyes to everything.  
E5 
(Without a thought, without a voice, without a soul...  
 
Don't let me die here.   
                        E/C    
There must be something more 
 
Bring me to life.  
 
(volta ao refrão) 
	  

Full key step upFull key step up
Half key step upHalf key step up
Half key step downHalf key step down
Full key step downFull key step down
Search Paypal
auto scroll beats size up size down change color hide chords drawings
tab show chords e-chords YouTube Clip e-chords hide all tabs e-chords go to top tab