Evanescence

home > Evanescence

All that Im living for Tab

Evanescence

Difficulty: BeginnerBeginner

by europeu

tuner correct add songbook print version text version save to e-mail
chordsukulelecavacokeyboardtabbassdrumsharmonicsflute Guitar Pro
chords

All that Im living for

Year: 2006 - Album: Open Door

  		INTRO 
e|--------------------------------------------------| 
B|--------------------------------------------------| 
G|--------------------------------------------------| 
D|-4-4-9-9---9-/-8-/-9-/-8--------------------------| 
A|-4-4-9-9---9-/-8-/-9-/-8--------------------------| 
E|-6-6-7-7---7-/-6-/-7-/-6--------------------------| 
 
Chorus Part 1 
(intro 1x a pak: 
e|-----------------| 
B|-----------------| 
G|-----------------| 
D|-9 -9-/-8-/-9-/-8| 
A|-9?-9-/-8-/-9-/-8| 
E|-7--7-/-6-/-7-/-6| 
 
Chorus Part 2 
e|---------------------------------------------------------------| 
B|---------------------------------------------------------------| 
G|---------------------------------------------------------------| 
D|--13-13-13-----------------------------------------------------| 
A|------------8-8-8----------------------------------------------| 
E|-------------------9-9-9-9-9-9-9-9-9-9-9-----------------------| 
 
BRIDGE (+-) 
 
e|------------------------------------| 
B|------------------------------------| 
G|------------------------------------| 
D|---9--4--8--------------------------| 
A|---9--4--8--------------------------| 
E|---7--2--6--------------------------| 
 

	  

Search Paypal
auto scroll beats size up size down change color hide chords drawings
tab show chords e-chords YouTube Clip e-chords hide all tabs e-chords go to top tab