Eva Cassidy

home > Eva Cassidy

Oh Danny Boy Tab

Eva Cassidy

Difficulty: nolevelnolevel

by joaoewerton

tuner correct add songbook print version text version save to e-mail
chordsukulelecavacokeyboardtabbassdrumsharmonicsflute Guitar Pro
chords

Oh Danny Boy

  		
Eva Cassidy     “Oh, Danny Boy”     Std Tuning      Capo 0       

      C       C                 C                 F                 Dm7 
e|----------|-----------------|-----------------|-----------------|-1-------1-------| 
B|----1-----|-1---------------|-1-----1---------|-----1-----------|-----1-------1---| 
G|----------|-----0---0---0---|-----0-----0-----|---2---2---2---0-|---2---2---2---0-| 
D|----------|---2---2---0---0-|---2-----0--0h2--|-3-------3---2---|-0-------0-------| 
A|----3-----|-3---------------|-3---------------|-----------------|-----------------| 
E|----------|-+---+---+---+---|-+---+---+---+---|-1---+---1---0---|-+---+---+---+---| 
 Oh, Danny boy       the pipes, the pipes are  calling                from glen to 

   C                 Am      G         Dm7               G         
e|-----------------|-----------------|---------1-------|-----------------| 
B|-------1-------1-|-------1-0-------|-----1-------1---|-0---------------| 
G|-----0-------0---|-----2-------0---|---2---2---2---2-|-----0-------0---| 
D|---2-------0-----|---2-------0---0-|-0-------0-------|---0---0---0---0-| 
A|-3-------2-------|-0---------------|-------------0---|-----------------| 
E|-+---+---+---+---|-+---+---3---+---|-+---+---+---+---|-3---+---3---+---| 
 glen          and down the mountain side                  the summer’s     

   C                 C                 F                 Dm7 
e|-0---------------|-0---------------|-----------------|-1-------1-------| 
B|-----------------|-------1---------|-----1-----------|-----1-------1---| 
G|-----0---0---0---|-----0-----0-----|---2---2---2---0-|---2---2---2---0-| 
D|---2---2---0---0-|---2-----0--0h2--|-3-------3---2---|-0-------0-------| 
A|-3---------------|-3---------------|-----------------|-----------------| 
E|-+---+---+---+---|-+---+---+---+---|-1---+---1---0---|-+---+---+---+---| 
 gone         and all the flowers    dying                 Tis you, tis 

   C                 Dm7     G         C                 C       G 
e|---------0---0---|-----------------|-----------------|-----------------| 
B|---------1---1---|-----1---0-------|---------1---1---|-1-----1-1p0-----| 
G|-----0-----0---0-|---2---2-----0---|-----0-----0---0-|-----0-------0---| 
D|---2---2-0---2---|-0---------0---0-|---2---2-3---3---|-2-2-------0-----| 
A|-3---------------|-----------------|-3---------------|-3---------------| 
E|-+---+---+---+---|-+---+---3---+---|-+---+---+---+---|-+---+---3---+---| 
 you    must      go  and  I must    bide                   but come ye 

   C                 F                 C                 G                
e|-----------------|-----------------|-----------------|-----------------| 
B|-------1---------|-------1---------|-----------------|-1p0-----0-------| 
G|-----0-----0-----|-----2-------2---|-----0-------0---|-----0-------0---| 
D|---2-----0---2---|---3-------3---3-|---2---2---2---2-|---0---0---0---0-| 
A|-3---------------|-----------------|-3-------3-------|-----------------| 
E|-+---+---+---+---|-1---+---1---+---|-+---+---+---+---|-3---+---3---+---| 
 back      when   summer's in   he   meadow                or when the 

   Am      G         F        Em       Dm7               G            
e|-----------------|-----------------|-----------------|-----------------| 
B|-----------------|-------1---------|-----1-------1---|-3-------0-------| 
G|-----2-------0---|-----2-------0---|---2---2---2-----|-0---0-------0---| 
D|---2---2---0---0-|---3-------2---2-|-0-------0-----0-|---0---0---0---0-| 
A|-0---------------|-----------------|-------------0---|-----------------| 
E|-+---+---3---+---|-1---+---0---+---|-+---+---+---+---|-3---+---3---+---| 
 va -a-  lley's  hushed and white with snow                 Tis I’ll be  

   C                 F                 C                 F  
e|-----------------|---------8-------|-----------------|-----------------| 
B|-1---------------|------1--7-------|-----------------|---------1---1---| 
G|-----0-----0---0-|---2-------------|-----0-------0---|-----2---2---2---| 
D|---2---2-0---2---|-3---------------|---2---2---2---2-|---3---3---3---3-| 
A|-3---------------|-----------------|-3-------3-------|-----------------| 
E|-+---+---+---+---|-1---+---+---+---|-+---+---+---+---|-1---+---1---1---| 
 here    in       sunshine  or  in   shadow                   Oh, Danny  

   C       Am        Dm7     G         C                         G     
e|-----------------|-----------------|-----------------|-----------------| 
B|-----1-------1---|-----1---------0-|---------1---1---|-1---1---1p0-----| 
G|-----0-------2---|---2---2-----0---|-----0-----0---0-|---0---0-----0---| 
D|---2---2---2---2-|-0---------0-----|---2---2-3---3---|-2---------0---0-| 
A|-3-------0-------|-----------------|-3---------------|-3---------------| 
E|-+---+---+---+---|-+---+---3---+---|-+---+---+---+---|-+---+---3---+---| 
 boy  oh,  Danny  boy I love you     so                   But when ye   
  
  C                  C                 F                 Dm7    
e|-0---------------|-0---------------|-----------------|-1-------1---1---| 
B|-------1-1---1---|-------1---------|-----1-----------|-----1-------1---| 
G|-----0-----0---0-|-----0-----0-----|---2---2---2---0-|---2---2---2---2-| 
D|---2-----0---2---|---2-----0---0h2-|-3-------3---2---|-0-------0-------| 
A|-3---------------|-3---------------|-----------------|-----------------| 
E|-+---+---+---+---|-+---+---+---+---|-1---+---1---0---|-+---+---+---+---| 
 come       and    all the roses     falling                   and I am   

   C       Em        Am      G         Dm7               G     
e|-----------------|-----------------|---------1-------|-----------------| 
B|-----1-------0---|-----------------|-----1-------1---|-3---------------| 
G|-----0-------0---|-----2-------0---|---2---2---2---2-|-----0-------0---| 
D|---2-------0-----|---2---2---0---0-|-0---0---0---0---|---0---0---0---0-| 
A|-3-----3-2-----2-|-0---------------|-----------------|-----------------| 
E|-+---+---+---+---|-+---+---3---+---|-+---+---+---+---|-3---+---3---+---| 
 dead     as       dead I  well may  be                      go out and 

   C                 C                 F                 Dm7     
e|-----------------|-----------------|-----------------|-----------------| 
B|-----------------|-1---1-----------|-----1-----------|-----1-------1---| 
G|-----0-------0---|-0---0-------0---|---2---2---2---0-|---2---2---2---0-| 
D|---2---2---2---2-|---2---2---2---2-|-3-------3---2---|-0-------0-------| 
A|-3-------3-------|-3---3---3-------|-----------------|-----------------| 
E|-+---+---+---+---|-+---+---+---+---|-1---+---1---0---|-+---+---+---+---| 
 find        the  place where I am  lying                 and kneel and 

   C                 Dm7     G         C                 C       G 
e|---------0---0---|-1---------------|-----------------|-----------------| 
B|---------1---1---|-----1-----------|---------1---1---|-1---1-----------| 
G|-----0-----0---0-|---2---2-----0---|-----0-----0---0-|---0---0-----0---| 
D|---2---2-0---2---|-0---------0---0-|---2---2-3---0---|0h2--2-----0---0-| 
A|-3---------------|-----------------|-3---------------|-3---------------| 
E|-+---+---+---+---|-+---+---3---+---|-+---+---+---+---|-+---+---3---+---| 
 pray   a little   “Ave” there for   me                      and I will   

   C                 F                 C                 G     
e|-----------------|-----------------|-----------------|-----------------| 
B|-------1---------|-------1---------|-----------------|-0-------0-------| 
G|-----0-----0---0-|-----2-------2---|-----0-----0---0-|-0---0---0---0---| 
D|---2-----0---2---|---3-------3---3-|---2---2-0---0---|---0---0---0---0-| 
A|-3---------------|-----------------|-3---------------|-----------------| 
E|-+---+---+---+---|-1---+---1---+---|-+---+---+---+---|-3---+---3---+---| 
 hear   though     soft your tread a-bove me                and then my  

   Am      G         F       Em        Dm7               G     
e|-----------------|-----------------|---------1-------|-----------------| 
B|-----------------|-----------------|-----1-------1---|-3-------3-------| 
G|-----2-------0---|-2---2-------0---|---2---2---2---2-|-0---0---0---0---| 
D|---2---2---0---0-|---3---3---2---2-|-0-------0---0---|---0---0---0---0-| 
A|-0---------------|-----------------|-----------------|-----------------| 
E|-+---+---3---+---|-1---+---0---+---|-+---+---+---+---|-3---+---3---+---| 
 gra -  ve  will  warm and  sweeter  be                   for you shall  

   C                 F                 C                 F  
e|-----------------|------------8----|-----------------|-----------------| 
B|-----------------|-------1---7-----|-------1---------|-------1-------1-| 
G|-----0-----0---0-|-----2----8------|-----0-----0-----|-----2-------2---| 
D|---2---2-0---2---|---3-----0-------|---2-----0---2---|---3-------3-----| 
A|-3---------------|-----------------|-3---------------|-----------------| 
E|-+---+---+---+---|-1---+---+---+---|-+---+---+---+---|-1---+---1---+---| 
 bow    and        tell me that you  love     me             and I will 

   C       Am        Dm7     G         C                strumm 
e|-----------------|-----------------|-----------------|-0----|| 
B|---------1---1---|-----1---0-------|---------1---1---|-1----|| 
G|-----0---2---2---|---2---2-0-------|-----0-----0---0-|-0----|| 
D|---2---2---2-----|-0---------------|---2---2-3---0---|-0h2--|| 
A|-3-------0---0---|-----------------|-3---------------|-3----|| 
E|-+---+---+---+---|-+---+---3---+---|-+---+---+---+---|-+----|| 
sleep in peace un-til you  come  to  me 



************************************ 

| h  Hammer-on 
| p  Pull-off 

************************************ 
	  

Full key step upFull key step up
Half key step upHalf key step up
Half key step downHalf key step down
Full key step downFull key step down
Search Paypal
auto scroll beats size up size down change color hide chords drawings
tab show chords e-chords YouTube Clip e-chords hide all tabs e-chords go to top tab