Eva Cassidy

home > Eva Cassidy

I Know You By Heart Tab

Eva Cassidy

Difficulty: IntermediateIntermediate

by andrsouza

tuner correct add songbook print version text version save to e-mail
chordsukulelecavacokeyboardtabbassdrumsharmonicsflute Guitar Pro
chords

I Know You By Heart

  		Eva cassidy I kow you by heart 
Capo:  1 

Intro:  G           D                G                D 
---------3--------------------------------3-------------------------| 
-------0-----0--------3-----------------0-----0--------3------------| 
-----2-----2---2----2---2-----0-------2-----2---2----2---3-----0----| 
---0--------------0---------0-------0--------------0---------0------| 
--------------------------3--------------------------------3------0-| 
-3--------------------------------3---------------------------------| 

Verse:    G            D                        G         D 
---------3--------------------------------------3--------2--------------| 
-------0-----0--------3-----------------------0-----0--------3----------| 
-----2-----2---2----2---2----------0--------2-----2---2----2---2------0-| 
---0--------------0-------------0---------0--------------0----------0---| 
-----------------------------3-------0----------------------------3-----| 
-3-------------------------------------3--------------------------------| 
    Midnights in win         ter,        the glowing     fi       re 
    Morning in Apr           il          Sharing our     secrets 
    You left         in autummn         the leaves where turning 

 G                     C      Em         Bbsus 
----------------------------------------------1--------------------1--| 
-0-----0------------------------------------1------1-----------1---1--| 
-----2-------2---------0--------0-----3---3----------3-------3-----3--| 
---0-------0---0-----2---2----2---2-----3--------3---------3-------3--| 
-------------------3------------------1------------------1------------| 
-3-------3------------------0-----------------------------------------| 
    lights up your face     in         orange and gold 
    We`d walk until the               moring was   gone 
    I walked down roads    of orange          and gold 


  G                   D                    G            D 
---------3------------3-----------------------3---------2--------------| 
-3-----0-----0----------2-------------------0------0--------3----------| 
-----2-----2---2----2----------0----------2------2---2----2---2------0-| 
---0--------------0----------0-----0----0---------------0----------0---| 
---------------------------3-------------------------------------3-----| 
-3-------------------------------------3-------------------------------| 
   I see your     sweet    smile      shine through the dark     ness 
   We where       like children      laughing four   hours 
   I saw you sweet smile              I heard your laughter 


       Bm                Em              C 
---------------------------------------------------------------| 
-------3-----------------0---------------1----------1----1---1-| 
-----4-------4---------0--------0------0-----0---0-----0---0---| 
---4-------4---4-----2--------2------2-----2---0---0h2-------0-| 
-2-------2------------------2------3---------------------------| 
-------------------0-------------------------------------------| 
 Its line is       etched  in   my memory 
 The joy you        gave me                    lives on and on 
 You`re still here  beside               me every day 



            G                C                    G 
----------------------------------------------------3--------3--------3-| 
--------------0----------------1--------1---------0-----0---------0-----| 
------------2-------2--------0-------0----------2-----2---2-----2---2---| 
----------0-------0---0----2-----0h2----0-----0-------------------------| 
-------------------------3----------------------------------------------| 
--------3-------3---------------------------3----------------3----------| 
So I'd  know  you   by   heart 
Cause I know you    by heart 

Cause I know you    by heart  laatste vers 
  G 
---------3-------------3-| 
-------0--------------0--| 
-----2-------2-------2---| 
---0-------0---0----0----| 
-------------------------| 
-3----------------3------| 

             C                    G                    C 
------------0--------3---------------------------------------3-------| 
-1-----3----------1-------1-------------1-----3-----------1------1---| 
----------------0-------0---0------2--------------------0------0---0-| 
----0----0----2------------------0---0-----0-----0----2--------------| 
-0-----2----3--------3------------------0-----2-----3--------3-------| 
-------------------------------3-------------------------------------| 
    I       still hear your    voice            on  warm summer 


      G               Am     G       F              D 
---------3------------------------------------------------2h3p2p0-0---2-| 
-------0-----0------------1--0----------1-------------3-------------3---| 
-----2-------0--------2---------2-----2-----2-------2---2---------------| 
---0-------0---0----2---2-----------3-----3---2---0---------------------| 
------------------0-------0-------3-------------------------------------| 
-3---------------------------3--1---------------------------------------| 
 nights           Whispering    like the          wind 

Ohhhh ohhhoo 
  D               Am         G      Em              Am 
-------0---------------------------------------------------0----------| 
---3--------3-----------------------------0--------------1------1-----| 
-2---2----2---2------2----------------0---0---0--------2----------2---| 
-------------------2---2---2---0----2---2---2---2----2-------2--------| 
-----------------0-------0-------------------------0------------------| 
-----------------------------3---0------------------------------------| 

ohhhhho 
     D 
---------2h3p2-------| 
-----3---------3-----| 
---2---2---------2---| 
-0-------------------| 
---------------------| 
---------------------| 
	  

Full key step upFull key step up
Half key step upHalf key step up
Half key step downHalf key step down
Full key step downFull key step down
Search Paypal
auto scroll beats size up size down change color hide chords drawings
tab show chords e-chords YouTube Clip e-chords hide all tabs e-chords go to top tab