Europe

Got To Have Faith

Europe

tabs Beginner beginner

save to print version add songbook text version e-mail correct tuner
chordsukulelecavacokeyboardtabbassdrumsharmonicaflute Guitar Pro
close

there isn't a video lesson for this song

chords

Got To Have Faith

	  		Pra dedilhar na ponte em cada acorde ( todos usam pestana) use o tab para: 
 
B9  
e--------------------------------- 
b------2-------------------------- 
g--------------------------------- 
d----4---------------------------- 
a--------------------------------- 
e-2------------------------------- 
 
C#9 
e--------------------------------- 
b-------------------------------- 
g------6--------------------------- 
d----6---------------------------- 
a--4------------------------------- 
e-------------------------------- 
 
G#4/7 
e--------------------------------- 
b-------------------------------- 
g------6--------------------------- 
d----4---------------------------- 
a--6------------------------------- 
e-------------------------------- 
 
G4 
e--------------------------------- 
b-------------------------------- 
g------6--------------------------- 
d----6---------------------------- 
a--6------------------------------- 
e-------------------------------- 
 
 
 
Riff verso fraco 
 
e-----------------------------------------------------0-------------- 
b--2--------------------2--4--2----2---------------------4?2--------- 
g----3-3-3--3-3-3--3-----------3----3-3-3--3-3-3--3----------3------- 
d-------------------------------------------------------------------- 
a-------------------------------------------------------------------- 
e-------------------------------------------------------------------- 
 
 
Riff verso ( pesadinho , pode acarretar um headbang ) 
 
e--------------------------------------------------------------- 
b--------------------------------------------------------------- 
g--------------------------------------------------------------- 
d-------------------------1----------------------------2-1-------- 
a----4--1-1-1-1-1-1--1-4------4-1-4-1-1-1-1-1-1-1--4-------4----- 
e--------------------------------------------------------------- 
 
transição 
 
e--------------------------------------------- 
b--------------------------------------------- 
g------------3\0--------------------------------- 
d------1-4-----------1--------------------------- 
a---4--------------4---4-1------------------------ 
e--------------------------------------------- 
 
refrão ( arranhe as cordas com a distorção alta do amplificador , 
 coisa que os metaleiros adoram, a cada início) 
 
e--------------------------------------------- 
b--------------------------------------------- 
g--------------------------------------------- 
d-----------1-3\0--------------------------------- 
a-----1-4--------------1-4----1-------------------- 
e--4-----------------4------4-------------------- 
 
 
solo - O John Norum usou o wah - wah dele , indicado por w em cada nota 
bw = bend e wah- wah   wv= vibrato e wah - wah 
 
e-------------|-------------|----------------------------- 
b---------6wv-|--------6bw--|--------6w------------------- 
g---6w-8w-----|----6-8----8-|----6-8------8-6-8-8bw-6----- 
d-8w----------|-8-----------|-8-----------------------8v-- 
a-------------|-------------|----------------------------- 
e-------------|-------------|----------------------------- 
 
e-----------13-|------------13b-------------------------| 
b-----14-16----|------14-16-----16-14-------------------| 
g--15----------|---15-----------------------------------| 
d--------------|-----------------------15-15-13---13----| 
a--------------|--------------------------------16---13-| 
e--------------|----------------------------------------| 
 
e------------------13-18-21-21--18---18---------------------|| 
b------------14-16-----------------21---21-18-----14bw-13---|| 
g-13-15---15----------------------------------19----------15|| 
d-----------------------------------------------------------|| 
a-----------------------------------------------------------|| 
e-----------------------------------------------------------|| 
 
 
A letra e localização dos tabs : 
 
 
 
riff verso fraco 2x 
 
 
riff verso de fundo aqui:  
The race is on  
I found my way  
Something has changed since I've been away  
The fear is gone  
and I can't wait  
I feel the rut, still got dues to pay  
 
transição 
 
refrão: 
Well I had enough  
Gonna stand up straight  
Rebuild my life  
Well you gotta have faith  
and it will be tough  
gonna fight each day  
'til I'm back on top  
Well you gotta have faith  
 
riff verso fraco 
 
riff de verso de fundo: 
Full speed ahead  
I waste no time  
Now I know how to live my life  
I've been knocked down - come back around  
It put some soul in this heart of mine  
 
 
transição 
 
 
Refrão 
 
 
Ponte: 
B9          C#9 
I get the feelin'  
G#4/7                 G4 
I can go that extra mile  
B9         C#9 
I get the feelin'  
G#4/7                 G4 
I can reach that open sky  
B9          C#9 
I get the feelin'  
G#4/7                    G4 
Things will never be the same  
B9          C#9 
I get the feelin'  
G#4/7      G4  C#5    
That I can win again!  
 
 
solo 
 
refrão:  
Well I had enough  
Gonna stand up straight  
Rebuild my life  
Well you gotta have faith  
and it will be tough  
gonna fight each day  
'til I'm back on top  
Well you gotta have faith  
Well you gotta have faith  
Well you gotta have faith 

		  

Full key step upFull key step up
Half key step upHalf key step up
Half key step downHalf key step down
Full key step downFull key step down
hide glossary

See also:

tabs Yngwie Malmsteen - Seventh Sign tabs Yngwie Malmsteen - Acoustic tabs Yngwie Malmsteen - Fire and Ice tabs Yngwie Malmsteen - Far Beyond The Sun tabs Yngwie Malmsteen - Anguish and Fear tabs Europe - Reason
e-chords

Other versions:

tabs Europe - Got To Have Faith
auto scroll beats size up size down change color hide chords drawings
tab show chords e-chords YouTube Clip e-chords hide all tabs e-chords go to top tab

share