Eufonius

Reflectia True Tears

Eufonius

tabs

by  RENEJUNIOR

save to print version add songbook text version e-mail correct tuner
chordsukulelecavacokeyboardtabbassdrumsharmonicaflute Guitar Pro
close

there isn't a video lesson for this song

chords

Reflectia True Tears

	  		 

    H.           E  E     Q    E  E  E  E  E  E     E  H        E  S S S S   
E||------------------4--|--7----5--4--5--4--2--0--|--2--0-----------0-2-4-5-| 
B||---------------5-----|--5----------------------|-------------------------| 
G||---------------------|--6----------------------|-------------------------| 
D||---------------------|-------------------------|-------------------------| 
A||---------------------|-------------------------|-------------------------| 
E||---------------------|-------------------------|-------------------------| 


  H         H           E  E  E  E  E  E  E  E     E  E  E  E  E  E  E  E    
--7--------14--------|-----0-----0--5--4--0--2--|--L--0--0--------------0--| 
--7--------16--------|--------0-----0--L--------|--------0-----------0-----| 
--8--------16--------|-----------2--------------|-----------1-----1--------| 
--9------------------|--------2-----------------|--------------2-----------| 
---------------------|-----0--------------L--0--|-----------------------0--| 
---------------------|--------------------------|--------------------------| 


  E  E  E  E  E  E  E  E     E  E  Q    H           E  E  E  E  E  E  E  E    
--0-----0--5--4--0--2-----|--L--4--4----0--------|--L--0-----0--5--4--0--2--| 
-----0-----0--------------|-----0-------0--------|--L-----0-----0-----------| 
--------2--------------1--|----------------------|-----------2--------------| 
-----2--------------------|--2-------------------|--------2-----------------| 
--0-----------------0-----|----------------------|-----0--------------------| 
--------------------------|----------------------|--------------------------| 


  Q.     E  E  E  E  E     H        E  E  E  E     E  E  E  E  H          
--2---------4--2--0-----|--0--------2--0--------|--0--------2--2--------| 
---------4-----------4--|--2--------------4--2--|--0-----------0--------| 
--4---------5-----------|--------------------3--|-----------------------| 
------------------------|-----------------4-----|--------4--------------| 
--2---------------------|-----------------------|-----2-----------------| 
------------------------|-----------2-----------|-----------------------| 


                                          NH      NH     NH    
  E  E  E  E  E  E  E  E     E  E  E.     Q       S S    E.    
-----0-----0--5--4--0--2--|--L--0--0---<>12----<>12-L-<>12---| 
--------0-----0-----------|------------<>12-------L---<>12---| 
-----------1--------------|----------------------------------| 
--------2-----------------|----------------------------------| 
-----0-----------------0--|--L-------------------------------| 
--------------------------|----------------------------------| 


                                           NH       NH     NH     
  E  E  E  E  E  E  E  E     E  E  Q       E   S    S S    S E    
-----0-----0--5--4--0--2--|--L--4--4----<>14---L-<>14-L-<>14-L--| 
--------0-----0--L--------|-------------------------------------| 
-----------2--------------|-------------------------------------| 
--------2-----------------|--------6------(2)-------L------L-L--| 
-----0-----------------4--|--L--7-------------------------------| 
--------------------------|-------------------------------------| 


  E  E  E  E  E  E  E  E     Q    E  E  E  E  E  E     Q.     E  E  E  E  E    
--L--0-----0--5--4--0--2--|--2----------4--2--0-----|--0---------2--0--------| 
--------0-----0-----------|-------------4--------4--|--2---------------4--2--| 
-----------1--------------|--4-------4--------------|------------------------| 
--L-----2-----------------|-------4-----------------|------------------------| 
-----0-----------------2--|--2----------3-----------|--4---------0-----------| 
--------------------------|-------------------------|------------------------| 


  E  E  E  E  H           Q    E  E  E  E  E   E     E  E  E  E  Q    E  E    
--0--------2--2--------|-------------------7------|-------------------2-----| 
--0-----------0--------|--8-------------------10--|-----------3----------3--| 
-----------------------|--9----------9--------11--|--------2-----2-------2--| 
--------4-----4--------|--9-------9-----9-----12--|-----4-------------------| 
-----2-----2-----------|-------7------------------|--0----------------------| 
-----------------------|--0-----------------------|-------------------------| 


                                       >    >         
  E  E  E  E  E  E   E  E     E  E  E  Q    Q    E    
--------------------10--0--|-----------5----7----7--| 
-----------3---------8--8--|-----------7----9-------| 
--------4-----4------------|-----------7----9-------| 
-----4-----------4---------|--------2---------------| 
--2------------------------|-----2------------------| 
---------------------------|--0---------------------| 


   Q     E   Q    E  E   E     E  E  E  E  E  E  E  E    
---8------------------------|-----------0--2--3--------| 
--------12---8----8------8--|--L-----------------------| 
---9-----------------9------|-----9-----------------2--| 
--10--------10----------10--|--7-----------------2-----| 
----------------------------|--------0--------0--------| 
----------------------------|--------------------------| 


  E  E  Q.     E  E  E     E  E  E.  Q    E  S  E    
--4------------3--4--6--|--------------------------| 
---------------------8--|-----------------8--9-11--| 
---------------------8--|-----------------8--------| 
-----3--3------3--------|--------8-----------------| 
--1---------------------|-----6------6-------------| 
---------------------6--|--6-----------------------| 


  E  E  E   Q     E  E  S S    E  E  E  E  E  S Q    S   
--4--3--4---------4--3--4---|-----------4--3--4-4----L-| 
------------4-------------4-|--L--L--------4----4----L-| 
--------3---3--------3----3-|--L--L-----------3--------| 
--3---------------3---------|--3-----6-----3-----------| 
-----3----------------------|-----3-----3--------------| 
-----------(4)--------------|--------------------------| 


  E  E  E   Q     E  E  S  S    E  E  E  E  E  E  Q      
--4--3--4---------4--3-----8-|--L--------9--8--6--6----| 
------------4-----------9----|-------------------------| 
--------3---3--------3----10-|--------------------6----| 
--3--L------------3----------|--------8--------6-------| 
-----3-----------------------|--8-----------6----------| 
-----------(4)---------------|-----8-------------------| 


  E  E  E   Q     E  E  S  S    Q.     E  E  E  E  E    
--4--3--4---------4--3--4-11-|--L---------6-----6--8--| 
------------4--------4-----9-|--L------9-----9--------| 
--------3---3-------------10-|--L---------------8-----| 
--3--------------------------|------------6-----------| 
-----3-----------------------|------------------------| 
-----------(4)---------------|------------------------| 


  E  E  E  E  E  E  E  E      E  E  E  Q    Q.        E  E  E  Q    E  E  S S   
--4--------------------4--|---9--8-----8----6------|--4--3--4-------4--3--4---| 
--6-----------------------|---------9--------------|-----------4------------4-| 
--6-----6--------6--------|--10--------8----6------|--------3--3-------3----5-| 
--------6-----3--6--3-----|------------------------|--3-----------------------| 
-----4-----4--------------|------------8----6------|-----3--------------------| 
--4-----------------------|------------------------|--------------------------| 


  Q.     E  E  E  Q       E  E  E  Q    E  E  S S    Q.     E   E  E  E  E    
---------4--3--4--4----|--4--3--4-------4--3--4-8-|--L------9--11-----------| 
--L--------------------|-----------4------------6-|--L----------9--9--9-----| 
--L---------3----------|--------3--3-------3----6-|--L----------8-----------| 
-----------------------|--3-----------------------|-------------8--------8--| 
------------3-----3----|-----3--------------------|-------------------------| 
-----------------------|--------------------------|-------------------------| 


   E  E  E   Q    E  E   E     Q.     E  E  E  E  E      E  E  H        E  E    
------------11----------11--|--L---------6-----6--8--|--11--------------------| 
---9--8--9---9----8--9---9--|---------9-----9--------|---9--9--9-----------9--| 
--10---------8-----------8--|--L---------------8-----|---8--------------------| 
--11------------------------|------------6-----------|------------------------| 
-------------8-----------8--|--L---------------------|---8--------------------| 
----------------------------|------------------------|------------------------| 


   E  E  E   E  E  E  E  E      E   Q    Q    E  Q       Q    E  Q    Q.       
---9--8------9--8-----6--4--|---6---4-----------------|--4----6--8----6------| 
---------9---------9--------|---6---------------------|--4-------------------| 
--10--------10--------------|--(6)-------6-------6----|----------8----8------| 
----------------------------|------------6----6--6----|----------------------| 
----------------------------|---4---------------------|----------------------| 
----------------------------|-------------------------|----------------------| 


                                           |---3--|    
  E  E  E  Q    E  E  S  S    H.           E  E   E    
--4--3--4-------4--3--4-11-|--L------------8--9--11--| 
--4--------4-------------9-|--L----------------------| 
--5--------5-------------8-|--L----------------------| 
---------------------------|-------------------------| 
---------------------------|-------------------------| 
-------------------------8-|--L------------8------L--| 


                                                              NH                 
       |--3--|  |---3--|                                                         
  Q    E  E  E  E  E   E   Q        Q.      E   H             W                  
--4-------4--6--4--8--11--16----|---L------16--16--------|---------------------| 
-------4------------------13----|---L------13--13--------|---------------------| 
--------------------------13----|---L------13--13--------|---------------------| 
--------------------------------|------------------------|---------------------| 
--------------------------------|------------------------|---------------------| 
--------------------------------|------------------------|--<>4----------------| 


  W                   W                   W                  
-------------------|-------------------|-------------------| 
-------------------|-------------------|-------------------| 
-------------------|-------------------|-------------------| 
-------------------|-------------------|-------------------| 
-------------------|-------------------|-------------------| 
--L----------------|-------------------|-------------------| 


-------------------|| 
-------------------|| 
-------------------|| 
-------------------|| 
-------------------|| 
-------------------|| 




Duration legend 
--------------- 
W - whole 
H - half 
Q - quarter 
E - 8th 
S - 16th 
T - 32nd 
X - 64th 
. - note dotted 
|-n-|  - n-tup-ets 


Tablature Legend 
---------------- 
- - tied note 
x - dead note 
g - grace note 
(n) - ghost note 
> - accentuded note 
NH - natural harmonic 
		  

See also:

tabs Deep Purple - Highway Star tabs Deep Purple - Smoke On The Water (Easy Intro) tabs Deep Purple - Space Truckin tabs Deep Purple - Rat Bat Blues tabs Deep Purple - Smoke On Water (ver. 2) tabs Deep Purple - Lazy
e-chords

Other versions:

tabs Eufonius - Reflectia True Tears
auto scroll beats size up size down change color hide chords drawings
tab show chords e-chords YouTube Clip e-chords hide all tabs e-chords go to top tab

share