Erra

Dreamcatcher

Erra

tabs nolevel nolevel

by  ADALGOMES

save to print version add songbook text version e-mail correct tuner
chordsukulelecavacokeyboardtabbassdrumsharmonicaflute Guitar Pro
close

there isn't a video lesson for this song

chords

Dreamcatcher

	  		

Tuning: G# 


   0:36  x2   
A#|---------------------------------------------------------------| 
F |---------------------------------------------------------------| 
C#|---------------------------------------------------------------| 
G#|---------------------------------------------------------------| 
D#|---------------------------------------------------------------| 
G#|-15-0-15-15-0-15-0-15-15-0-15-0-15-15-0-15-0-15-0-15-15-0-15-0-| 



A#|---------------------------------------------------------------| 
F |-----------------------------11--------------------13----------| 
C#|------------------10-12/14--------14-12h14p12-----------10-----| 
G#|------------10-12-----------------------------15-------------12| 
D#|---------------------------------------------------------------| 
G#|-15-15-0-15----------------------------------------------------| 



A#|------10-------------------------------------------------------| 
F |-13--------13--------------------------------------------------| 
C#|----------------10---------------------------------------------| 
G#|---------------------------------------------------------------| 
D#|---------------------------------------------------------------| 
G#|---------------------------------------------------------------| 


   0:57 
A#|---------------------------------------------------------------| 
F |-----------------------------------17--------------------------| 
C#|------------10------------------14----------14------------10---| 
G#|---------14----14---------14/15-------15-14------------14----14| 
D#|---------------------------------------------------------------| 
G#|-12-0-12----------12-0-12----------------------12-0-12---------| 



A#|---------------------------------------------------------------| 
F |---------------------------------------------------------------| 
C#|---------------------------------------------------------------| 
G#|---------------------------------------------------------------| 
D#|---------------------------------------------------------------| 
G#|-12-0-3-3-3-3-8-8-8-8------------------------------------------| 



A#|---------------------------------------------------------------| 
F |-----------------------------------17--------------------------| 
C#|------------10------------------14----------17------------10---| 
G#|---------14----14---------14/15-------15-14------------14----14| 
D#|---------------------------------------------------------------| 
G#|-12-0-12----------12-0-12----------------------12-0-12---------| 



A#|---------------------------------------------------------------| 
F |---------------------------------------------------------------| 
C#|---------------------------------------------------------------| 
G#|---------------------------------------------------------------| 
D#|---------------------------------------------------------------| 
G#|-12-0-3-3-3-3-10-10-10-10--------------------------------------| 


   1:07 
A#|-----------3*--------------------------------------------------| 
F |------------3*-------------------------------------------------| 
C#|-------------3*------------------10----------------------------| 
G#|--------------3*--------------------14-------------------------| 
D#|---------------3*----------------------------------------------| 
G#|-0-x-0---0------3*-00/12-0-10-10-------------------------------| 
                      xx       x  x 

   1:10 
A#|------------------------------------------------3*-------------| 
F |-------------------------------------------------3*------------| 
C#|--------------------------------------------------3*-----------| 
G#|-00000---0---0-------------------------------------3*----------| 
D#|-00000---0---0--------------------------------------3*---------| 
G#|-00000---0---0---000-000-0-0-0---0000000---0000------3*-0-0----| 
    xxxxx   x   x   xxx xxx   x     xxxxxxx   xxxx         x x 


A#|---------------------------------------------------------------| 
F |---------------------------------------------------------------| 
C#|-------10------------------------------------------------------| 
G#|----------14---------------------------------------------------| 
D#|---------------------------------------------------------------| 
G#|-10-10---------------------------------------------------------| 
     x  x 


A#|------------------------------------------------3*-------------| 
F |-------------------------------------------------3*------------| 
C#|--------------------------------------------------3*-----------| 
G#|-00000---0---0-------------------------------------3*----------| 
D#|-00000---0---0--------------------------------------3*---------| 
G#|-00000---0---0---000-000-0-0-0---0000000---0000------3*-0000---| 
    xxxxx   x   x   xxx xxx   x     xxxxxxx   xxxx         xxxx    


A#|---------------------------------------------------------------| 
F |---------------------------------------------------------------| 
C#|---------------------------------------------------------------| 
G#|---------------------------------------------------------------| 
D#|---------------------------------------------------------------| 
G#|-/12-0---------------------------------------------------------| 
      


A#|------------------------------------------------3*-------------| 
F |-------------------------------------------------3*------------| 
C#|--------------------------------------------------3*-----------| 
G#|-00000---0---0-------------------------------------3*----------| 
D#|-00000---0---0--------------------------------------3*---------| 
G#|-00000---0---0-----------0-0-0---0000000---0000------3*-0-0----| 
    xxxxx   x   x             x     xxxxxxx   xxxx         x x 


A#|---------------------------------------------------------------| 
F |---------------------------------------------------------------| 
C#|-------10------------------------------------------------------| 
G#|----------14---------------------------------------------------| 
D#|---------------------------------------------------------------| 
G#|-10-10---------------------------------------------------------| 
     x  x 


A#|------------------------------------------------3*-------------| 
F |-------------------------------------------------3*------------| 
C#|--------------------------------------------------3*-----------| 
G#|-00000---0---0-------------------------------------3*----------| 
D#|-00000---0---0--------------------------------------3*---------| 
G#|-00000---0---0---000-000-0-0-0---0000000---0000------3*-0-0----| 
    xxxxx   x   x   xxx xxx   x     xxxxxxx   xxxx         x x 


A#|---------------------------------------------------------------| 
F |---------------------------------------------------------------| 
C#|-------10------------------------------------------------------| 
G#|----------14---------------------------------------------------| 
D#|---------------------------------------------------------------| 
G#|-10-10---------------------------------------------------------| 
     x  x 

   1:30  x4 
A#|---------------------------------------------------------------| 
F |---------------------------------------------------------------| 
C#|---------------------------------------------------------------| 
G#|---------------------------------------------------------------| 
D#|---------------------------------------------------------------| 
G#|-15-0-15-15-0-15-0-15-15-0-15-0-15-15-0-15-0-15-0-15-15-0-15-0-| 



A#|---------------------------------------------------------------| 
F |---------------------------------------------------------------| 
C#|---------------------------------------------------------------| 
G#|---------------------------------------------------------------| 
D#|---------------------------------------------------------------| 
G#|-15-15-0-15-0-15-15-15-----------------------------------------| 


   1:51 
A#|---------------------------------------------------------------| 
F |-----------------------------------17--------------------------| 
C#|------------10------------------14----------14------------10---| 
G#|---------14----14---------14/15-------15-14------------14----14| 
D#|---------------------------------------------------------------| 
G#|-12-0-12----------12-0-12----------------------12-0-12---------| 



A#|---------------------------------------------------------------| 
F |---------------------------------------------------------------| 
C#|---------------------------------------------------------------| 
G#|---------------------------------------------------------------| 
D#|---------------------------------------------------------------| 
G#|-12-0-3-3-3-3-8-8-8-8------------------------------------------| 



A#|---------------------------------------------------------------| 
F |-----------------------------------17--------------------------| 
C#|------------10------------------14----------17------------10---| 
G#|---------14----14---------14/15-------15-14------------14----14| 
D#|---------------------------------------------------------------| 
G#|-12-0-12----------12-0-12----------------------12-0-12---------| 



A#|---------------------------------------------------------------| 
F |---------------------------------------------------------------| 
C#|------101010105-5-5-5------------------------------------------| 
G#|---------------------------------------------------------------| 
D#|------8-8-8-8-3-3-3-3------------------------------------------| 
G#|-12-0----------------------------------------------------------| 


   2:02  x2 
A#|------------------------------------------------3*-------------| 
F |-------------------------------------------------3*------------| 
C#|--------------------------------------------------3*-----------| 
G#|-00000---0---0-------------------------------------3*----------| 
D#|-00000---0---0--------------------------------------3*---------| 
G#|-00000---0---0---000-000-0-0-0---0000000---0000------3*-0-0----| 
    xxxxx   x   x   xxx xxx   x     xxxxxxx   xxxx         x x 


A#|---------------------------------------------------------------| 
F |---------------------------------------------------------------| 
C#|-------10------------------------------------------------------| 
G#|----------14---------------------------------------------------| 
D#|---------------------------------------------------------------| 
G#|-10-10---------------------------------------------------------| 
     x  x 

   2:12 
A#|---------------------------------------------------------------| 
F |---------------------------------------------------------------| 
C#|-----------------------------------------------------10--------| 
G#|---------------7-3-----------------------------7-3---14--------| 
D#|-----------3/5-------5-----8---7-----------3/5-----------------| 
G#|-0-0-0-0-0---------0---0-0---0---0-0-0-0-0---------0----0------| 
            x         x   x x   x           x         x    x 


A#|---------------------------------------------------------------| 
F |---------------------------------------------------------------| 
C#|-------10----------------------------------------------9-------| 
G#|----------14---------------10-7-------------------10-----------| 
D#|-----------------------7/8--------8-----12---10----------------| 
G#|-10-10-------0-0-0-0-0----------0---0-0----0----0----0---0-----| 
     x  x               x          x   x x    x    x    x   x 


A#|-------------------------0-------------------------------------| 
F |---------------------------------------------------------------| 
C#|-10------------------------10----------------------------------| 
G#|----14-----12------10-12---------------------------------------| 
D#|-------0------10p0---------------------------------------------| 
G#|---------0-----------------------------------------------------| 
            x          x  x 

   2:22  x3 
A#|--------------------------------0------------------------------| 
F |---------------------------------------------------------------| 
C#|-10101010--10--1010101010---------10---------------------------| 
G#|-10101010--10--1010101010-10-12--------------------------------| 
D#|-8-8-8-8---8---8-8-8-8-8---------------------------------------| 
G#|-8-8-8-8---8---8-8-8-8-8---------------------------------------| 
                              x  x 

    
A#|----------------------/17-------------------------------17-----| 
F |----------------------------13---15---/18---17h18p17/15----15--| 
C#|-10101010--10--1010--------------------------------------------| 
G#|-10101010--10--1010--------------------------------------------| 
D#|-8-8-8-8---8---8-8---------------------------------------------| 
G#|-8-8-8-8---8---8-8---------------------------------------------| 



A#|---------------------------------------------------------------| 
F |-/17------15----------------------------------10/13------------| 
C#|-----17------14---14h15p14/12---10---9b--7------------0-10-0---| 
G#|-------------------------------------------10------------------| 
D#|---------------------------------------------------------------| 
G#|---------------------------------------------------------------| 



A#|-------------------------------8h10----------------------------| 
F |---------------------------------------------------------------| 
C#|--------------------------7h10---------------------------------| 
G#|-12-0------8h10------8h10--------------------------------------| 
D#|------8h10------8-10----------------8-10-/12---10h12p10/8------| 
G#|---------------------------------------------------------------| 
                   x  x                x  x 

   2:46 
A#|---------------------------------------------------------------| 
F |---------10-------------10------13h15--------------------------| 
C#|--------------10---10------12-----------14---------------------| 
G#|-0-10-12----0----0----0-------0-------0------------------------| 
D#|---------------------------------------------------------------| 
G#|---------------------------------------------------------------| 
    x  x  x    x    x    x       x       x 


A#|--------------------------------------15h17--------------------| 
F |---------10-------------10------13h15--------------------------| 
C#|--------------10---10------12----------------------------------| 
G#|-0-10-12----0----0----0-------0--------------------------------| 
D#|---------------------------------------------------------------| 
G#|---------------------------------------------------------------| 
    x  x  x    x    x    x       x        


A#|---------------------------------------------------------------| 
F |---------10-------------10-------------------------------------| 
C#|--------------10---10------12---12-10--------------------------| 
G#|-0-10-12----0----0----0-------0-------12-10--------------------| 
D#|---------------------------------------------------------------| 
G#|---------------------------------------------------------------| 
    x  x  x    x    x    x       x        

   2:53  x2 
A#|---------------------------------------------------------------| 
F |---------------------------------------------------------------| 
C#|---------------------------------------------------------------| 
G#|-------------------------------------------0-0-0-0-0-----------| 
D#|-------------------------------------------0-0-0-1-0-----------| 
G#|-10/12-12-12-12-0---0---------xx---xx------0-0-0---0-----------| 
                                              x x x   x 

   3:04 
A#|---------------------------------------------------------------| 
F |---------------------------------------------------------------| 
C#|---------------------------------------------------------------| 
G#|-0-0---0---0---0---00000-------------------0-0-0-0-0-----------| 
D#|-0-0---0---0---0---00000-------------------0-0-0-1-0-----------| 
G#|-0-0---0---0---0---00000---0-0-0-----------0-0-0---0-----------| 
    x x   x   x   x   xxxxx                   x x x   x 

    
A#|---------------------------------------------------------------| 
F |---------------------------------------------------------------| 
C#|---------------------------------------------------------------| 
G#|-0---0000000-----------------------0-0-0-0-0-0-----------------| 
D#|-0---0000000-------------------5---1-0-0-0-1-0-----------------| 
G#|-0---0000000---0-0-0---------0---0---0-0-0---0---0~------------| 
    x   xxxxxxx                 x   x   x x x   x 

   3:18 
A#|---------------0-----------------------------------------------| 
F |---------------------------------------------------------------| 
C#|-----------------10--------------------------------------------| 
G#|-0-0-0---10-12-------------------------------------------------| 
D#|-0-0-0---------------------------------------------------------| 
G#|-0-0-0---------------------------------------------------------| 
    x x x    x  x 

   3:19 
A#|---------------------------------------------------------------| 
F |---------------------------------------------------------------| 
C#|---------------------------------------------------------------| 
G#|-8-------5-------8-------5-------------------------------------| 
D#|-8-(x32)-3-(x32)-8-(x32)-3-(x32)-------------------------------| 
G#|-8---------------8---------------------------------------------| 


   3:40 
A#|---------------------------------------------------------------| 
F |---------------------------------------------------------------| 
C#|---------------------------------------------------------------| 
G#|-0~-------------------5~-----3~-------------------------5~-----| 
D#|-0~-------------------3~-----1~-------------------------3~-----| 
G#|-0~------------------------------------------------------------| 



A#|---------------------------------------------------------------| 
F |---------------------------------------------------------------| 
C#|---------------------------------------------------------------| 
G#|-0~-----------10~-----5~------3~------------------------5~-----| 
D#|-0~-----------8~------3~------1~------------------------3~-----| 
G#|-0~------------------------------------------------------------| 


   4:01  x4 
A#|---------------------------------------------------------------| 
F |---------------------------------------------------------------| 
C#|---------------------------------------------------------------| 
G#|---------------------------------------------------------------| 
D#|---------------------------------------------------------------| 
G#|-15-0-15-15-0-15-0-15-15-0-15-0-15-15-0-15-0-15-0-15-15-0-15-0-| 



A#|---------------------------------------------------------------| 
F |---------------------------------------------------------------| 
C#|---------------------------------------------------------------| 
G#|---------------------------------------------------------------| 
D#|---------------------------------------------------------------| 
G#|-15-15-0-15-0-15-15-15-----------------------------------------| 
		  

See also:

tabs Deep Purple - Sometimes a Feel Like Screaming tabs Deep Purple - Mistreated tabs Deep Purple - Smoke on the Water (ver. 2) tabs Ira! - Vitrine Viva tabs Doa - Sexyest Girl tabs Deep Purple - Ted The Mechanic
e-chords

Other versions:

tabs Andy Mckee - Dreamcatcher tabs Erra - Dreamcatcher tabs Title Fight - Dreamcatchers
auto scroll beats size up size down change color hide chords drawings
tab show chords e-chords YouTube Clip e-chords hide all tabs e-chords go to top tab

share with facebook