Ernie Haase

Any Other Man

Ernie Haase

tabs

by  UBIRBOMFIM

save to print version add songbook text version e-mail correct tuner
chordsukulelecavacokeyboardtabbassdrumsharmonicaflute Guitar Pro
close

there isn't a video lesson for this song

chords

Any Other Man

	  		

Tuning: Standard 

Hello. I love this song, I couldn't find this song on any tab site, so I had to test my abilities.  
I give the praise to God. Without him I couldn't have done it. I wanted to share it so that anyone  
else who wants to learn it doesn't have to do it the hard way like I did. I hope you enjoy... 

Intro: 

e|---------------------------------------------------------------------------| 
B|---------------------------------------------------------------------------| 
G|------3--------------------3------------3----------------------------------| 
D|--3h5---5-3------------3h5---5v-----3h5---5-3------------------------------| 
A|------------3p1-------------------------------3p1-----3-1-3-1-3\5-3-1------| 
E|----------------3p1-------------------------------3p1-----------------3----| 

e|---------------------------------------------------------------------------| 
B|--------11---------------------------11------------------------------------| 
G|--10h12----12-10---------------10h12----12v--------------------------------| 
D|-----------------10p8------------------------------------------------------| 
A|----------------------10p8-------------------------------------------------| 
E|---------------------------------------------------------------------------| 

e|---------------------------------------------------------------------------| 
B|--------11-----------------------------------------------------------------| 
G|--10h12----12-10-----------------------------------------------------------| 
D|-----------------10p8------10-8-10-8-10\12-10-8----------------------------| 
A|----------------------10p8----------------------10-------------------------| 
E|---------------------------------------------------------------------------| 



 VERSE ONE 
  
    G                    F 
Any other man would have said, "Take her away" 
    C                               G 
instead He wrote forgiveness in the sand 
    G                        F 
And any other man would have called the leper's plight 
    C                               G 
unfortunate but part of some great plan; 
    F        C            G  
but Jesus wasn't any other man 
    F        C            G  
No, Jesus wasn?t any other man 

 VERSE TWO 

 Any other man 
 would have surely walked on by 
 the blind man begging there beside the road 
 Any other man 
 hearing Lazarus had died 
 would join the mourners sorrow as it flowed; 
 but Jesus wasn't any other man. 
 No, Jesus wasn?t any other man. 

 Chorus 

 He was totally God 
 And totally man 
 He came here to save 
 and not to condemn 
 He came down to Earth 
 to fulfill the Father's plan. 
 Jesus wasn't any other man, 
 Jesus wasn't any other man. 

 VERSE THREE 

 Any other man 
 who was sentenced to be killed 
 would beg for mercy from the courts that day 
 Any other man 
 looking at his mother's grief 
 would call the waiting angels to escape; 
 but Jesus wasn't any other man 
 No, Jesus wasn?t any other man. 

 REPEAT Chorus 

 BRIDGE 

 Any other man 
 including me, I'm afraid 
 would not have been so forgiving 
 of the ones who loved to hate 

 REPEAT Chorus 

Solo: 

e|---------------------------------------------------------------------------| 
B|-------------------6-------------------------------------------------------| 
G|--------------3h5^---5^v----3-----------3-5-5^-3---------------------------| 
D|----------3h5-----------------5-3---3-5----------5p3-------5p3-------------| 
A|----1h3h5-------------------------5------------------3p1-3-----3p1-3\5-3/1-| 
E|-\3------------------------------------------------------------------------| 

e|-----3-----3-----3-----3-----3-----3-5^-3----------------------------------| 
B|-3h6---3h6---3h6---3h6---3h6---3h6--------6-3------6^-6-3------------------| 
G|----------------------------------------------5-3---------5-3--------------| 
D|---------------------------------------------------------------------------| 
A|---------------------------------------------------------------------------| 
E|---------------------------------------------------------------------------| 

e|-------15-------15-------15-------15-18^-15----------------15--------------| 
B|-15h18----15h18----15h18----15h18-----------18-18^-18^v-18----18-15--------| 
G|---------------------------------------------------------------------17----| 
D|---------------------------------------------------------------------------| 
A|---------------------------------------------------------------------------| 
E|---------------------------------------------------------------------------| 

e|---------------------------------------------------------------------------| 
B|---------------------------------------------------------------------------| 
G|-17p15-17p15-17v--15-------------------------------------------------------| 
D|---------------------17-15-------------------------------------------------| 
A|---------------------------15^-13v-----------------------------------------| 
E|---------------------------------------------------------------------------| 

************************************ 

| /   slide up 
| \   slide down 
| h   hammer-on 
| p   pull-off 
| v   vibrato 
| +   harmonic 
| x   Mute note 
| ^   Bend 
| pb  Pre-bend 
| br  Bend release 
| pbr Pre-bend release 
| brb Bend release bend 

************************************ 
		  

Full key step upFull key step up
Half key step upHalf key step up
Half key step downHalf key step down
Full key step downFull key step down
hide glossary

See also:

tabs Deep Purple - Strange kind of woman tabs Deep Purple - Smoke On The Water tabs Deep Purple - Time To Kill tabs Albert Hammond Jr - Gfc tabs Deep Purple - Soldier Of Fortune tabs Ira! - Nucleo De Base
e-chords

Other versions:

tabs Ernie Haase - Any Other Man
auto scroll beats size up size down change color hide chords drawings
tab show chords e-chords YouTube Clip e-chords hide all tabs e-chords go to top tab

share