Eric Clapton

home > Eric Clapton

Tears In Heaven (ver. 3) Tab

Eric Clapton

Difficulty: AdvancedAdvanced

by Erkolin

tuner correct add songbook print version text version save to e-mail
chordsukulelecavacokeyboardtabbassdrumsharmonicsflute Guitar Pro
chords

Tears In Heaven (ver. 3)

  		Intro: 
 
E||------------------------------------------------- 
B||---------2-3-2-----5----5--2-----2-----2----2---- 
G||-------2-------2---4----4--2-----2-----2----2---- 
D||------------------------------------------------- 
A||----0-------------------------------------------- 
E||-0-2---------------4--4----2--2-----2--0--0------ 
 
E||------------------------------------------------- 
B||------3-----3-----3-----3-----2-----2-----2-----2 
G||------2-----2-----2-----1-----2-----2-----2-----2 
D||------------------------------------------------- 
A||------------------------------0--0-----0--0--0--- 
E||-0-2--2--2-----2--0--0-----0--------------------- 
 
 
 
            "Would you..." 
E||------------------------------------------------- 
B||---------2-3-2-----5----5--2-----2-----2----2---- 
G||-------2-------2---4----4--2-----2-----2----2---- 
D||------------------------------------------------- 
A||----0-------------------------------------------- 
E||-0-2---------------4--4----2--2-----2--0--0------ 
 
E||------------------------------------------------- 
B||------3-----3-----2-----2-----0-----0----2-----3- 
G||------2-----2-----2-----2-----1-----1----2-----4- 
D||------------------------------------------------- 
A||------------------------------------------------- 
E||-0-2--2--2-----2--0--0-----0--0--0----0-----0---- 
 
Play this 2 times.. then: 
 
E||-------2-----------2-----------1-----------1------- 
B||-2-----2-----2-----2-----2-----2-----2-----2------- 
G||-2-----------2-----------1-----------1------------- 
D||--------------------------------------------------- 
A||--------------------------------------------------- 
E||-2--2-----2--2--2-----2--1--1-----1--1--1-----1---- 
 
E||-------0-----------0----------------------------------2-----------2- 
B||-2-----2-----2-----2----------------------2-----3-----3-----3-----3- 
G||-0-----------0-----------3----3-----4-----1-----2-----------2------- 
D||-------------------------4----4-----4------------------------------- 
A||------------------------------------------1--1--2--2-----2--2--2---- 
E||-0--0-----0--0--0-----0--2--2----2--4--4---------------------------- 
 
E||-------------------------- 
B||-------3--3-----3--------- 
G||-------2--2-----2--------- 
D||-------2--2-----2--------- 
A||------------------------0- 
E||-2--0--------0-------0-2-- Intro one more time 
 
Then: 
             "Time can.."    
E||-----------0-----------0-----------0--------------- 
B||-----------1-----------1-----------1-----------3--- 
G||--------0-----0-----0-----0-----0-----0--------2--- 
D||--------------------------------------------0-----0 
A||-0-2-3-----------2-----------0--------------------- 
E||-----------------------------------------2--------- 
 
E||--------------------------------------------------- 
B||-3-----3-----3-----3-----3-----3-----3-----3------- 
G||-0-----0-----0-----0-----0-----0-----0-----0------- 
D||--------------------------------------------------- 
A||--------------------------------------------------- 
E||-3--3-----3--2--2-----2--0--0-----0--2--2--3--3---- 
 
E||--------0-----------0-----------0--------------- 
B||--------1-----------1-----------1-----------3--- 
G||-----0-----0-----0-----0-----0-----0--------2--- 
D||-----------------------------------------0-----0 
A||--3-----------2-----------0--------------------- 
E||--------------------------------------2--------- 
 
E||--------------------------------------------------- 
B||-3-----3-----3-----3-----0-----0-----2-----3------- 
G||-0-----0-----0-----0-----1-----1-----2-----4------- 
D||--------------------------------------------------- 
A||--------------------------------------------------- 
E||-3--3-----3--2--2-----2--0--0-----0-----0---------- 
 
And from the beginning, you should be able to know how much of it to 
play after this. 
 
 

	  

Search Paypal
auto scroll beats size up size down change color hide chords drawings
tab show chords e-chords YouTube Clip e-chords hide all tabs e-chords go to top tab