Eric Clapton

home > Eric Clapton

Tears in Heaven (ver. 2) Tab

Eric Clapton

Difficulty: BeginnerBeginner

by Hankey

tuner correct add songbook print version text version save to e-mail
chordsukulelecavacokeyboardtabbassdrumsharmonicsflute Guitar Pro
chords

Tears in Heaven (ver. 2)

  		||------------------0-0-------5/7/5--5--2-------------------------| 
||----------2h3----------2---5/7/5--5--2----3-3--2-0--2-0---| 
||----------------2------------------------------2-2------2---------| 
||------------------------------------------------0-0-----------------| 
||---------0--------------------------------------------0-------------| 
||--0-2-4----------4-----2-----------------------------------------| 
 
|------------------0-0-------5/7/5--5--2-------------------------| 
|----------2h3--------2----5/7/5--5--2----3-3--2-0--2-0----| 
|----------------2------------------------------2-2------2---------| 
|------------------------------------------------0-0-----------------| 
|---------0--------------------------------------------0-------------| 
|--0-2-4----------4-----2-----------------------------------------| 
 
|-6-6-8---5----3-3-5--2--------1--------------------------| 
|-------------------------------0-2-1---0-0--------2-0-0---| 
|-------------------------------------2--------2-1----------2-| 
|-5-5------4----2-2---------------3-------------3-----------| 
|-------------------------------------3--------------------------| 
|-----------------------------------------------------------------| 
 
|------------------0-0-------5/7/5--5--2-------------------------| 
|----------2h3-----------2--5/7/5--5--2----3-3--2-0--2-0---| 
|----------------2------------------------------2-2------2---------| 
|------------------------------------------------0-0-----------------| 
|---------0--------------------------------------------0-------------| 
|--0-2-4----------4-----2-----------------------------------------| 
 
|----------0-0---------------------------------| 
|----------------3-3-1-1-----2----0---------| 
|---------------------------2-----2-----2--0--| 
|-------------------------------0---------------| 
|---0-2-3------2----0------------------------| 
|-3-----------------------------------3-2--0--| 
 
|----------0-0--------------------------------------| 
|----------------3-3-1-1-----2----0--0-3-------| 
|---------------------------2-----2--------------1-| 
|-------------------------------0-----------------2-| 
|---0-2-3------2----0--------------------------2-| 
|-3------------------------------3------------------| 
 
|------------------0-0-------5/7/5--5--2-------------------------|| 
|----------2h3----------2---5/7/5--5--2----3-3--2-0--2-0---|| 
|----------------2------------------------------2-2------2---------|| 
|------------------------------------------------0-0-----------------|| 
|---------0--------------------------------------------0-------------|| 
|--0-2-4----------4-----2-----------------------------------------|| 
 
 
*** Continua *** 
 
 
Tablatura by Mr.Hankey and Mr.Dick 

	  

Search Paypal
auto scroll beats size up size down change color hide chords drawings
tab show chords e-chords YouTube Clip e-chords hide all tabs e-chords go to top tab