Eric Clapton

home > Eric Clapton

River Of Tears (intro) Tab

Eric Clapton

Difficulty: AdvancedAdvanced

by pedro%2Egermano

tuner correct add songbook print version text version save to e-mail
chordsukulelecavacokeyboardtabbassdrumsharmonicsflute Guitar Pro
chords

River Of Tears (intro)

  		e|-------------------------------------------------------- 
B|--6-5-5~----------8-5-8-6~-5h6-5~--------5-----5~-5----- 
G|------------7-5~-----------------7-5-7~---7~--8--7--7-5~ 
D|-5------3/5-----5---------------------------5----------- 
A|-------------------------------------------------------- 
E|-------------------------------------------------------- 
 
e|---------------------------------------------------------------- 
B|---------5/6-8-6-5--5/6-5------5-------------------------------- 
G|----7-5~----------7~-----7-5-7~--7~---------5~-7-5~-------5-7-5~ 
D|-3/5----5--------------------------3/5-5-5h7----7---5555h7---7-- 
A|---------------------------------------------------------------- 
E|---------------------------------------------------------------- 
 
 
e|-------------------------------------------------------- 
B|-------------------------------------------------------- 
G|-5h7-5-------------------------------------------------- 
D|------7-5----------------------------------------------- 
A|---------7-5-3~----------------------------------------- 
E|-------------------------------------------------------- 
 
It's three miles to the river that would carry me away, 
and two miles to the dusty street that I saw you on today, 
It's four miles to my lonely room where I'm gonna hide my face, 
and about half a mile to the downtown bar that I ran from in disgrace 
 
Lord how long have I got to keep on running? 
Seven hours, seven days or seven years? 
All I know is since you've been gone, feel like I'm drowning 
in a river 
Drowning in a river of tears 
Drowning in a river 
Feel like I'm drowning, drowning in a river 
 
In three more days, I leave this town, and disappear without a trace, 
a year from now maybe settle down, where no one knows my face, 
I wish that I could hold you one more time to ease the pain, 
But my times run out and I got to go, got to run away again 
 
Still I catch myself thinking one day I'll find my way back here 
And you'll save me from drowning, 
Drowning in a river, drowning in a river of tears 
Drowning in a river, Feels like I'm drowning, 
Drowning in a river 
Lord how long must this go on? 
 
Drowning in a river, drowning in a river of tears. 
 
/   = Slide up 
 \   = Slide down 
 h   = hammer on 
 p   = pull off  
 ~   = Vibrato 

	  

Search Paypal
auto scroll beats size up size down change color hide chords drawings
tab show chords e-chords YouTube Clip e-chords hide all tabs e-chords go to top tab