Eric Clapton

home > Eric Clapton

let it rain/solo Tab

Eric Clapton

Difficulty: IntermediateIntermediate

by europeu

tuner correct add songbook print version text version save to e-mail
chordsukulelecavacokeyboardtabbassdrumsharmonicsflute Guitar Pro
chords

let it rain/solo

Year: 1970 - Album: Eric Clapton

  		1st Guitar Solo (01:34): 
|-------------9---------------------| 
|----9-10-12-----12-10--------------| 
|-11--------------------------------| 
|-----------------------------------| 
|-----------------------------------| 
|-----------------------------------| 
 
|-12b14-14--12-10----------------------| 
|-----------------12-12-14p12p10-------| 
|--------------------------------11----| 
|--------------------------------------| 
|--------------------------------------| 
|--------------------------------------| 
 
Guitar 1 
|-------2------------------2--------| 
|-3-3-5---5-3-5------3-3-5---5-3-5--| 
|-----------------------------------| 
|-----------------------------------| 
|-----------------------------------| 
|-----------------------------------| 
|                                   | 
|                                   | 
|Guitar 2                           | 
|--------------7-10------7----------| 
|-------------8-----10-8------------| 
|------------9----------------------| 
|-----------------------------------| 
|-----------------------------------| 
|-----------------------------------| 
 
 
 
|-------2------------------2--------| 
|-3-3-5---5-3-5------3-3-5---5-3-5--| 
|-----------------------------------| 
|-----------------------------------| 
|-----------------------------------| 
|-----------------------------------| 
|                                   | 
|                                   | 
|Guitar 2                           | 
|--------------7-10-------------7---| 
|-------------8-----10-8-10p8-------| 
|------------9----------------9-----| 
|-----------------------------------| 
|-----------------------------------| 
|-----------------------------------| 
 
 
 
 
|-------2------------------2--------| 
|-3-3-5---5-3-5------3-3-5---5-3-5--| 
|-----------------------------------| 
|-----------------------------------| 
|-----------------------------------| 
|-----------------------------------| 
|                                   | 
|                                   | 
|Guitar 2                           | 
|--------------7-----------------7--| 
|-------------8--8--10p8---10p8-----| 
|------------9-----------9-----9----| 
|-----------------------------------| 
|-----------------------------------| 
|-----------------------------------| 
 
 
 
2nd Guitar Solo (02:56): 
|-17-17-17-17-17-17-17-17-17-17-17-17-17-17-17-17-17-17-17-17-17-| 
|----------------------------------------------------------------| 
|----------------------------------------------------------------| 
|----------------------------------------------------------------| 
|----------------------------------------------------------------| 
|----------------------------------------------------------------| 
 
|-17-17-17-17-17-17-17-17-17-17-17-17-17-17-17-17-17-17-17-17-17-| 
|----------------------------------------------------------------| 
|----------------------------------------------------------------| 
|----------------------------------------------------------------| 
|----------------------------------------------------------------| 
|----------------------------------------------------------------| 
 
|-15-15-15-15-14-14-14-14----------------------------------------| 
|-------------------------17-17-17-17-15-15-15-15-14-------------| 
|----------------------------------------------------------------| 
|----------------------------------------------------------------| 
|----------------------------------------------------------------| 
|----------------------------------------------------------------| 
 
|----------------------------------------------------------------| 
|-14--15--14p12---------------------------------------------14---| 
|---------------14------14-14-14-14-14-14-14-14-14-14-14-14------| 
|----------------------------------------------------------------| 
|----------------------------------------------------------------| 
|----------------------------------------------------------------| 
 
|----------------------------------------------------------------17-| 
|---14---15---14p12--------14--17-19--19-17-19-17-19-19-19-19-19----| 
|-------------------14----------------------------------------------| 
|-------------------------------------------------------------------| 
|-------------------------------------------------------------------| 
|-------------------------------------------------------------------| 
 
|--17h19p17----21------21--21-21--19-------22----22--21--22--21-| 
|-----------17--------------------------------------------------| 
|---------------------------------------------------------------| 
|---------------------------------------------------------------| 
|---------------------------------------------------------------| 
|---------------------------------------------------------------| 
 
|------19-----19-----19-----19-----19-| 
|-19h22--19h22--19h22--19h22--19h22---| 
|-------------------------------------| 
|-------------------------------------| 
|-------------------------------------| 
|-------------------------------------| 
 
|-19p17p14-19p17p14-19p17p14-19p17p14-19p17p14-19/21--19-17h19p17----17-| 
|-----------------------------------------------------------------19----| 
|-----------------------------------------------------------------------| 
|-----------------------------------------------------------------------| 
|-----------------------------------------------------------------------| 
|-----------------------------------------------------------------------| 
 
|---------------------------------| 
|-17h19-17h19-17------------------| 
|-----------------14h16p14----14--| 
|--------------------------16-----| 
|---------------------------------| 
|---------------------------------| 
 
|-------14-------17--------| 
|-------------------17-----| 
|-14-16----------------14--| 
|--------------------------| 
|--------------------------| 
|--------------------------| 
 
|--------------------------------------------------------------------------| 
|--------------------------------------------------------------------------| 
|------14-14-16p14--14-16p14-------------------------------14----14----14--| 
|-14h16-----------16--------16-14-16p14--------------14-16----16----16-----| 
|--------------------------------------16------14-16-----------------------| 
|--------------------------------------------------------------------------| 
 
Keyboard Solo 
 
3rd Guitar Solo (03:59): 
|----17-19--20---20---20---20---20-20-20-20-20-20-19p17----17--17\-| 
|-19----------------------------------------------------19-----17\-| 
|------------------------------------------------------------------| 
|------------------------------------------------------------------| 
|------------------------------------------------------------------| 
|------------------------------------------------------------------| 
 
|20---19p17---20---19p17---20---19p17---20---19p17---20p17---17-17--17-17-17| 
|----------19-----------19-----------19-----------19------19------19--------| 
|---------------------------------------------------------------------------| 
|---------------------------------------------------------------------------| 
|---------------------------------------------------------------------------| 
|---------------------------------------------------------------------------| 
 
|------17-17------17-----17-----17-----17-----17-----17-------------------| 
|-17h19------17h19--17h19--17h19--17h19--17h19--17h19---19-17-------------| 
|-------------------------------------------------------------18-16-18-14-| 
|-------------------------------------------------------------------------| 
|-------------------------------------------------------------------------| 
|-------------------------------------------------------------------------| 
 
|------------------------------------------------------------| 
|------------------------------------------------------------| 
|-------14-16-14-18----14-16-14---------------------------14-| 
|-14-16-------------------------16-14----------------14-16---| 
|-------------------------------------16-12--12-14-16--------| 
|------------------------------------------------------------| 
 
|---------------------------| 
|---------------------------| 
|---------------14h16p14----| 
|----------14-16--------16--| 
|-12-14-16------------------| 
|---------------------------| 
 
|----14-12--------------------12--------12----------------------------------| 
|-14-------14-12-14-12----14-----14--------14-12----------------------------| 
|----------------------14------------------------14-11----------------------| 
|---------------------------------------------------------14-11-------11-14-| 
|---------------------------------------------------------------14-12-------| 
|---------------------------------------------------------------------------| 
 
|----12-12---12--12--12--12--12--12--12--12--12-| 
|-14-------14--14--14--14--14--14--14--14--14---| 
|-----------------------------------------------| 
|-----------------------------------------------| 
|-----------------------------------------------| 
|-----------------------------------------------| 
 
|-----------------------------------------------------| 
|-14--12----------------------------------------------| 
|--------14--11-14--11-14--11-14--11-14--11-14--11-14-| 
|-----------------------------------------------------| 
|-----------------------------------------------------| 
|-----------------------------------------------------| 
 
|-------12-----------------------------------------------------------21b23--| 
|-12-14----14-12--14-12-----------------------------------------------------| 
|-----------------------14-11------------------------13b14------------------| 
|-----------------------------14-12-14-12------------------14---------------| 
|-----------------------------------------14-12-----------------------------| 
|---------------------------------------------------------------------------| 
 

	  

Search Paypal
auto scroll beats size up size down change color hide chords drawings
tab show chords e-chords YouTube Clip e-chords hide all tabs e-chords go to top tab