Eric Clapton

home > Eric Clapton

Key To The Highway Tab

Eric Clapton

Difficulty: ExpertExpert

by europeu

tuner correct add songbook print version text version save to e-mail
chordsukulelecavacokeyboardtabbassdrumsharmonicsflute Guitar Pro
chords

Key To The Highway

Year: 1995 - Album: Eric Clapton's Rainbow Concert

  		The chords are so simple:A E7 F#m D7 F#m A E E7 A 
 
The next is a rythm idea 
e|-/9-9-9-9-9-9-9-----------10101010-----2-2-2-2-| 
B|-/10101010101010----------9-9-9-9------2-2-2-2-| 
G|-/9-9-9-9-9-9-9-----------9-9-9-9------2-2-2-2-| 
D|----------------7/11-10-9-9-9-9-9------4-4-4-4-| 
A|---------------------------------------4-4-4-4-| 
E|-----------------------------------0-1-2-2-2-2-| 
    A                       E7           F#m 
 
it sounds so acoustic in the song, so (please) DO NOT USE ANY OVERDRIVE!!! 
 
 
Intro lead(but I prefer improvisation) 
 
e|----------------------------12b14-12b14-12-10----------------| 
B|-12b14-12b14-12b14-12b14-12-------------------13-12----12----| 
G|----------------------------------------------------14----11-| 
D|-------------------------------------------------------------| 
A|-------------------------------------------------------------| 
E|-------------------------------------------------------------| 
 
 
e|---------------------12----------------------12-11-10-----------| 
B|------12b14-12b14-15----12b14-12-------10-------------13h14-----| 
G|-11-14---------------------------11-14-11-14----------------14--| 
D|----------------------------------------------------------------| 
A|----------------------------------------------------------------| 
E|----------------------------------------------------------------| 
 
e|-----------------| 
B|-7h8-5---------5-| 
G|-------7-5-5h6---| 
D|-----------------| 
A|-----------------| 
E|-----------------| 
 
(b-bend, h-hammer on) 
 
 

	  

Full key step upFull key step up
Half key step upHalf key step up
Half key step downHalf key step down
Full key step downFull key step down
Search Paypal
auto scroll beats size up size down change color hide chords drawings
tab show chords e-chords YouTube Clip e-chords hide all tabs e-chords go to top tab