Eric Clapton

home > Eric Clapton

If I Dont Be There By Morning Tab

Eric Clapton

Difficulty: nolevelnolevel

by hugo%5Frodrigues

tuner correct add songbook print version text version save to e-mail
chordsukulelecavacokeyboardtabbassdrumsharmonicsflute Guitar Pro
chords

If I Dont Be There By Morning

  		 Intro 
  Q=122 
  B5/F#  E     B5/F#      E     B5/F#      E     B5/F#      E     B5/F# 
 4/4 
  Gtr I (El. Gtr.) 
                                    <      >         < 
  W                W                H      H         W 
|----------------|----------------|----------------|-----------------| 
|----------------|----------------|----------------|-----------------| 
|----------------|----------------|-4------4-------|-4---------------| 
|----------------|----------------|-4------4-------|-4---------------| 
|----------------|----------------|-2------2-------|-2---------------| 
|----------------|----------------|-2------2-------|-2---------------| 
| 
| Gtr II (El. Gtr.) 
| Q  E E E E E E   Q  E E E E E E   Q  E E E E E E   Q  E E E E E E 
|----------------|----------------|----------------|-----------------| 
|--------0-0-0---|--------0-0-0---|--------0-0-0---|--------0-0-0----| 
|-4--4---1-1-1-4-|-4--4---1-1-1-4-|-4--4---1-1-1-4-|-4--4---1-1-1-4--| 
|-4--4---2-2-2-4-|-4--4---2-2-2-4-|-4--4---2-2-2-4-|-4--4---2-2-2-4--| 
|-2--2---2-2-2-2-|-2--2---2-2-2-2-|-2--2---2-2-2-2-|-2--2---2-2-2-2--| 
|-2--2---0-0-0-2-|-2--2---0-0-0-2-|-2--2---0-0-0-2-|-2--2---0-0-0-2--| 


                                        1st - 3rd Verses 
                                     $ 
          E     B5/F#      E     B5/F#   B5/F#  E     B5/F#      E     B5/F# 
  Q   E E Q   E E   Q  E E E E E S S     H      E E E E   Q  Q   E Q   E 
|-----------------|------------------||-----------------|-----------------| 
|----/4-4-4---4p2-|------------------||o----------9-----|-----------------| 
|-----------------|-6--4-4-2S1-------||---------8---8-7h|=8--------9------| 
|-----------------|------------4-----||-----------------|----9------------| 
|-----------------|--------------4s6-||o-2--------------|-----------------| 
|-----------------|------------------||-----------------|-----------------| 
| 
| Q   E E E E E E   Q  E E E E E E       Q  E E E E E E   Q  E E E E E E 
|-----------------|------------------||-----------------|-----------------| 
|---------0-0-0---|--------0-0-0-----||o--------0-0-0---|--------0-0-0----| 
|-4---4---1-1-1-4-|-4--4---1-1-1-4---||--4--4---1-1-1-4-|-4--4---1-1-1-4--| 
|-4---4---2-2-2-4-|-4--4---2-2-2-4---||--4--4---2-2-2-4-|-4--4---2-2-2-4--| 
|-2---2---2-2-2-2-|-2--2---2-2-2-2---||o-2--2---2-2-2-2-|-2--2---2-2-2-2--| 
|-2---2---0-0-0-2-|-2--2---0-0-0-2---||--2--2---0-0-0-2-|-2--2---0-0-0-2--| 


           E     B5/F#      E     B5/F#      E        B5/F#      E     B5/F# 
  H      E E E S S   Q  Q   H         Q  E E Q      E E   W 
|------------------|----------------|-------------------|-----------------| 
|------------------|----------------|-------------------|-----------------| 
|----------9---7h8-|----------------|--------7tr8---9---|-----------------| 
|------------------|----------------|----9-9----------9-|-----------------| 
|------------------|-9--------------|-------------------|-----------------| 
|------------------|----------------|-------------------|-----------------| 
| 
| Q  E E E E E E     Q  E E E E E E   Q  E E E    E E E   Q  E E E E E E 
|------------------|----------------|-------------------|-----------------| 
|--------0-0-0-----|--------0-0-0---|--------0----0-0---|--------0-0-0----| 
|-4--4---1-1-1-4---|-4--4---1-1-1-4-|-4--4---1----1-1-4-|-4--4---1-1-1-4--| 
|-4--4---2-2-2-4---|-4--4---2-2-2-4-|-4--4---2----2-2-4-|-4--4---2-2-2-4--| 
|-2--2---2-2-2-2---|-2--2---2-2-2-2-|-2--2---2----2-2-2-|-2--2---2-2-2-2--| 
|-2--2---0-0-0-2---|-2--2---0-0-0-2-|-2--2---0----0-0-2-|-2--2---0-0-0-2--| 


         E        B5/F#              E 
  Q  E E Q      E E      +H          H 
|---------------7------|---------------------|| 
|----------------------|---------------------|| 
|--------7tr8-----7tr8-|-(7tr8)--------------|| 
|----9-9---------------|---------------------|| 
|----------------------|---------------------|| 
|----------------------|---------------------|| 
| 
| Q  E E E    E E E       Q      E E E E E E 
|----------------------|---------------------|| 
|--------0----0-0------|-------------0-0-0-0-|| 
|-4--4---1----1-1-4----|--4------4---1-1-1-1-|| 
|-4--4---2----2-2-4----|--4------4---2-2-2-2-|| 
|-2--2---2----2-2-2----|--2------2---2-2-2-2-|| 
|-2--2---0----0-0-2----|--2------2---0-0-0-0-|| 


 Chorus 
         A/E   E          A/E E 
  W                Q  Q   E E Q 
|----------------|-4--5---7s5-5---| 
|----------------|----------------| 
|----------------|-4--6---7s5-6---| 
|----------------|----------------| 
|----------------|----------------| 
|----------------|----------------| 
| 
| Q  E E E E E E   Q  E E E E E E 
|----------------|----------------| 
|-0--0---2-2-2-0-|-0--0---2-2-2-0-| 
|-1--1---2-2-2-1-|-1--1---2-2-2-1-| 
|-2--2---2-2-2-2-|-2--2---2-2-2-2-| 
|-2--2---0-0-0-2-|-2--2---0-0-0-2-| 
|-0--0---0-0-0-0-|-0--0---0-0-0-0-| 


             A/E       A/E       E   B5/F#  E     B5/F# 
  Q  Q   E E Q     E E Q   H         Q  E E E E E E 
|-4--5---7s5-5---|-4s2-2---2-------|-------------------| 
|----------------|-----------------|-------------------| 
|-4--6---7s5-6---|-4s2-2---2-------|----8---9-9---7tr8-| 
|----------------|-----------------|-------------------| 
|----------------|-----------------|-------------------| 
|----------------|-----------------|-------------------| 
| 
| Q  E E E E E E   Q   E E E E E E   Q  E E E E E E 
|----------------|-----------------|-------------------| 
|-0--0---2-2-2-0-|-0---0---2-2-2-0-|--------0-0-0------| 
|-1--1---2-2-2-1-|-1---1---2-2-2-1-|-4--4---1-1-1-4----| 
|-2--2---2-2-2-2-|-2---2---2-2-2-2-|-4--4---2-2-2-4----| 
|-2--2---0-0-0-2-|-2---2---0-0-0-2-|-2--2---2-2-2-2----| 
|-0--0---0-0-0-0-|-0---0---0-0-0-0-|-2--2---0-0-0-2----| 


                                           1. 
              E     B5/F#      E     B5/F#         E     B5/F# 
  +Q      Q   H         H      Q   E E      W 
|---------------------|-------------------|-----------------|| 
|---------------------|-------------------|----------------o|| 
|-(7tr8)--------------|------------9-7tr8-|-----------------|| 
|---------------------|-------------------|-----------------|| 
|---------------------|-------------------|----------------o|| 
|---------------------|-------------------|-----------------|| 
| 
|  Q      E E E E E E   Q  E E E E E E      Q  E E E E E E 
|---------------------|-------------------|-----------------|| 
|-------------0-0-0---|--------0-0-0------|--------0-0-0---o|| 
|--4------4---1-1-1-4-|-4--4---1-1-1-4----|-4--4---1-1-1-4--|| 
|--4------4---2-2-2-4-|-4--4---2-2-2-4----|-4--4---2-2-2-4--|| 
|--2------2---2-2-2-2-|-2--2---2-2-2-2----|-2--2---2-2-2-2-o|| 
|--2------2---0-0-0-2-|-2--2---0-0-0-2----|-2--2---0-0-0-2--|| 


                   Bridge 
  2.,D.S. 
         E          D#m7            G#m7 
  H      E E E E    W               W 
|----------------||---------------|---------------| 
|----------------||---------------|---------------| 
|----------------||---------------|---------------| 
|------------7h9-||---------------|---------------| 
|--------7h9-----||---------------|---------------| 
|----------------||---------------|---------------| 
| 
| Q  E E E E E E    Q  Q  E E E E   Q  Q  E E E E 
|----------------||-6--6--6-6-6-6-|---------------| 
|--------0-0-0-0-||-7--7--7-7-7-7-|-4--4--4-4-4-4-| 
|-4--4---1-1-1-1-||-6--6--6-6-6-6-|-4--4--4-4-4-4-| 
|-4--4---2-2-2-2-||-8--8--8-8-8-8-|-4--4--4-4-4-4-| 
|-2--2---2-2-2-2-||-6--6--6-6-6-6-|-6--6--6-6-6-6-| 
|-2--2---0-0-0-0-||---------------|-4--4--4-4-4-4-| 


  E               A               D#m7 
  Gtr II 
  Q  Q  E E E E   Q  Q  E E E E   Q  Q  E E E E 
|---------------|-0--0--0-0-0-0-|-6--6--6-6-6-6-| 
|-0--0--0-0-0-0-|-2--2--2-2-2-2-|-7--7--7-7-7-7-| 
|-1--1--1-1-1-1-|-2--2--2-2-2-2-|-6--6--6-6-6-6-| 
|-2--2--2-2-2-2-|-2--2--2-2-2-2-|-8--8--8-8-8-8-| 
|-2--2--2-2-2-2-|-0--0--0-0-0-0-|-6--6--6-6-6-6-| 
|-0--0--0-0-0-0-|---------------|---------------| 


                         To Coda 
  G#m7            C#m7 
  Gtr I 
  W               W 
|---------------|----------------| 
|---------------|----------------| 
|---------------|----------------| 
|---------------|----------------| 
|---------------|----------------| 
|---------------|----------------| 
| 
| Gtr II 
| Q  Q  E E E E   Q  Q  E E E E 
|---------------|-4--4--4-4-4-4--| 
|-4--4--4-4-4-4-|-5--5--5-5-5-5--| 
|-4--4--4-4-4-4-|-4--4--4-4-4-4--| 
|-4--4--4-4-4-4-|-6--6--6-6-6-6--| 
|-6--6--6-6-6-6-|-4--4--4-4-4-4--| 
|-4--4--4-4-4-4-|----------------| 


  F#7 
  E E      E E E E  E      E    E E E E E E     E E 
|-----------------------------|----------------------|| 
|-----------------------------|----------------------|| 
|---9pb11==9-9-9-9r-9pb10==9r-|-9-9-9-9-9-9pb11-7-9--|| 
|-----------------------------|----------------------|| 
|-----------------------------|----------------------|| 
|-----------------------------|----------------------|| 
| 
| Q        Q   E E  E      E    Q   Q   E E     E E 
|-----------------------------|----------------------|| 
|-2--------2---2-2--2------2--|-2---2---2-2-----2-2--|| 
|-3--------3---3-3--3------3--|-3---3---3-3-----3-3--|| 
|-2--------2---2-2--2------2--|-2---2---2-2-----2-2--|| 
|-4--------4---4-4--4------4--|-4---4---4-4-----4-4--|| 
|-2--------2---2-2--2------2--|-2---2---2-2-----2-2--|| 


 Guitar Solo 1 
  B5/F#    E   B5/F#        E     B5/F# 
  Q  Q   E E E E   +H       E E E E 
|------------7---|----------------7-| 
|--------------7-|-(7)--------------| 
|--------7-8-----|----------7-6-----| 
|-9--9-----------|--------------9---| 
|----------------|------------------| 
|----------------|------------------| 
| 
| Q  E E E E E E    Q   E E E E E E 
|----------------|------------------| 
|--------0-0-0---|----------0-0-0---| 
|-4--4---1-1-1-4-|--4---4---1-1-1-4-| 
|-4--4---2-2-2-4-|--4---4---2-2-2-4-| 
|-2--2---2-2-2-2-|--2---2---2-2-2-2-| 
|-2--2---0-0-0-2-|--2---2---0-0-0-2-| 


           E           B5/F#                E     B5/F# 
  +Q   Q   E S     +S  S   +S  E   +Q   S S E E E E   E 
|-(7)----------------------------|--------------7---------| 
|--------------------------------|----------7-9---9-/12---| 
|------------9pb10r(9)-7b8-(7)---|------8h9---------------| 
|------------------------------9-|-(9)--------------------| 
|--------------------------------|------------------------| 
|--------------------------------|------------------------| 
| 
|  Q   E E E E         E       E    Q   E   E E E E   E 
|--------------------------------|------------------------| 
|----------0-0---------0---------|------------0-0-0-------| 
|--4---4---1-1---------1-------4-|--4---4-----1-1-1---4---| 
|--4---4---2-2---------2-------4-|--4---4-----2-2-2---4---| 
|--2---2---2-2---------2-------2-|--2---2-----2-2-2---2---| 
|--2---2---0-0---------0-------2-|--2---2-----0-0-0---2---| 


             E           B5/F#                    E        B5/F# 
   +Q    Q    E  E  S     +S   E       +E  E  E E  E  E  S S E 
|------------10-12-12b14-(12)-10b11-|-(10)---------------------| 
|-(12)--12--------------------------|--------12---12-10--------| 
|-----------------------------------|-------------------11s9---| 
|-----------------------------------|--------------------------| 
|-----------------------------------|--------------------------| 
|-----------------------------------|--------------------------| 
| 
|   Q    E E  E  E  E          E        Q     E E  E  E  E   E 
|-----------------------------------|--------------------------| 
|-------------0--0--0---------------|--------------0--0--0-----| 
|---4----4----1--1--1----------4----|---4-----4----1--1--1---4-| 
|---4----4----2--2--2----------4----|---4-----4----2--2--2---4-| 
|---2----2----2--2--2----------2----|---2-----2----2--2--2---2-| 
|---2----2----0--0--0----------2----|---2-----2----0--0--0---2-| 


             E         B5/F#               E     B5/F# 
  E    +E  E E E  E     +E  E    E E E     E E E Q 
|------------7-7------------7-|-----------------------| 
|----------7-----10b12-(10)---|-10-7-------7----------| 
|-9b11-(9)--------------------|------9b9.5---7-9------| 
|-----------------------------|------------------9\---| 
|-----------------------------|-----------------------| 
|-----------------------------|-----------------------| 
| 
| Q        E E E  E      E  E    Q   E     E E E E  E 
|-----------------------------|-----------------------| 
|--------------0--0------0----|--------------0-0-0----| 
|-4--------4---1--1------1--4-|--4---4-------1-1-1--4-| 
|-4--------4---2--2------2--4-|--4---4-------2-2-2--4-| 
|-2--------2---2--2------2--2-|--2---2-------2-2-2--2-| 
|-2--------2---0--0------0--2-|--2---2-------0-0-0--2-| 


  E      A/E   E            A/E   E 
               ~~~~~~~~ 
  Q  Q   E E E E   +Q   E E a E E E E 
|------------0---|--------------------| 
|----------0---5-|-(5)--3-0-----------| 
|--------1-------|----------3s2-0-----| 
|----2-----------|----------------2-2-| 
|----------------|--------------------| 
|-0--------------|--------------------| 
| 
| Q  E E E E E E    Q   E E   E E E E 
|----------------|--------------------| 
|-0--0---2-2-2-0-|--0---0-----2-2-2-0-| 
|-1--1---2-2-2-1-|--1---1-----2-2-2-1-| 
|-2--2---2-2-2-2-|--2---2-----2-2-2-2-| 
|-2--2---0-0-0-2-|--2---2-----0-0-0-2-| 
|-0--0---0-0-0-0-|--0---0-----0-0-0-0-| 


             A/E     E 
  +Q   E E   +Q    S S E   E E E E Q   Q 
|------------------------|-----------------| 
|------3-----------------|-----------------| 
|--------2b4-(2)---2p0---|-2-0-------------| 
|-(2)------------------2-|-----2---0-------| 
|------------------------|-------2-----2---| 
|------------------------|-----------------| 
| 
|  Q   E E    E  E E   E   E E E E E E E E 
|------------------------|-----------------| 
|--0---0------2--2-2---0-|-0-0-0-0-0-0-0-0-| 
|--1---1------2--2-2---1-|-1-1-1-1-1-1-1-1-| 
|--2---2------2--2-2---2-|-2-2-2-2-2-2-2-2-| 
|--2---2------0--0-0---2-|-2-2-2-2-2-2-2-2-| 
|--0---0------0--0-0---0-|-0-0-0-0-0-0-0-0-| 


  B5/F#  E     B5/F#         E         B5/F# 
  Q  Q   Q   E E   +E  E E E E   +E  E E 
|----------------|-----------------------| 
|----------------|-----------3b4-(3)-----| 
|----4---2-----4-|-(4)---2h4---------4-4-| 
|----4---2-----4-|-(4)-4-----------------| 
|-2----------2---|-----------------------| 
|----------------|-----------------------| 
| 
| Q  E E E E E E    Q    E E E    E  E E 
|----------------|-----------------------| 
|--------0-0-0---|-----------0----0--0---| 
|-4--4---1-1-1-4-|--4----4---1----1--1-4-| 
|-4--4---2-2-2-4-|--4----4---2----2--2-4-| 
|-2--2---2-2-2-2-|--2----2---2----2--2-2-| 
|-2--2---0-0-0-2-|--2----2---0----0--0-2-| 


                                 D.S. al Coda 
              E     B5/F#      E         B5/F# 
  +Q   Q    E  E  E  E   E E E E E   +E  E E 
|----------------------|---0-------------------|| 
|-------------10-------|-------9---------------|| 
|-(4)------11----11-11-|-9---9---7b8-(7)-------|| 
|----------------------|-----------------9-6---|| 
|----------------------|-----------------------|| 
|----------------------|-----------------------|| 
| 
|  Q   E E  E  E  E  E   Q   E E E    E  E E 
|----------------------|-----------------------|| 
|-----------0--0--0----|---------0----0--0-----|| 
|--4---4----1--1--1--4-|-4---4---1----1--1-4---|| 
|--4---4----2--2--2--4-|-4---4---2----2--2-4---|| 
|--2---2----2--2--2--2-|-2---2---2----2--2-2---|| 
|--2---2----0--0--0--2-|-2---2---0----0--0-2---|| 


  & 
  F#7 
   S     +S   E Q   H         W 
|------------11-------------|-----------------|| 
|---------------------------|-----------------|| 
|-10b11-(10)----------------|-----------------|| 
|---------------------------|-----------------|| 
|---------------------------|-----------------|| 
|---------------------------|-----------------|| 
| 
|  E          E E E E E E E   E E E E E E E E 
|---------------------------|-----------------|| 
|--2----------2-2-2-2-2-2-2-|-2-2-2-2-2-2-2-2-|| 
|--3----------3-3-3-3-3-3-3-|-3-3-3-3-3-3-3-3-|| 
|--2----------2-2-2-2-2-2-2-|-2-2-2-2-2-2-2-2-|| 
|--4----------4-4-4-4-4-4-4-|-4-4-4-4-4-4-4-4-|| 
|--2----------2-2-2-2-2-2-2-|-2-2-2-2-2-2-2-2-|| 


 4th Verse 
  B5/F#  E                          E     B5/F# 
  Q  Q   +E  E E E      +Q      Q   H 
|---------------------|----------------------| 
|---------------------|----------------------| 
|--------------9-7tr8-|-(7tr8)---------------| 
|----9---(9)-9--------|----------------------| 
|---------------------|----------------------| 
|---------------------|----------------------| 
| 
| Q  E E  E  E E E       Q      E E E E E E 
|---------------------|----------------------| 
|---------0--0-0------|-------------0-0-0----| 
|-4--4----1--1-1-4----|--4------4---1-1-1-4--| 
|-4--4----2--2-2-4----|--4------4---2-2-2-4--| 
|-2--2----2--2-2-2----|--2------2---2-2-2-2--| 
|-2--2----0--0-0-2----|--2------2---0-0-0-2--| 


         E     B5/F#         E     B5/F#      E   B5/F#        E     B5/F# 
  H      E E E E   +E  E Q   H         Q  E E E E Q     W 
|----------------|-------------------|--------7-------|----------------| 
|----------------|-------------------|----7---7-------|----------------| 
|--------9-7-6---|-------------------|----8-----------|----------------| 
|--------------9-|-(9)-9-9-----------|----------------|----------------| 
|----------------|-------------------|----------------|----------------| 
|----------------|-------------------|----------------|----------------| 
| 
| Q  E E E E E E    Q    E E E E E E   Q  E E E E E E   Q  E E E E E E 
|----------------|-------------------|----------------|----------------| 
|--------0-0-0---|-----------0-0-0---|--------0-0-0---|--------0-0-0---| 
|-4--4---1-1-1-4-|--4----4---1-1-1-4-|-4--4---1-1-1-4-|-4--4---1-1-1-4-| 
|-4--4---2-2-2-4-|--4----4---2-2-2-4-|-4--4---2-2-2-4-|-4--4---2-2-2-4-| 
|-2--2---2-2-2-2-|--2----2---2-2-2-2-|-2--2---2-2-2-2-|-2--2---2-2-2-2-| 
|-2--2---0-0-0-2-|--2----2---0-0-0-2-|-2--2---0-0-0-2-|-2--2---0-0-0-2-| 


                                      Chorus 
             E   B5/F#      E                 A/E   E          A/E   E 
  H      Q   E S S   Q  Q   H          W                H      Q   E   E 
|------------------|----------------||----------------|-------------------| 
|------------------|----------------||----------------|-------------------| 
|------------9-7h8-|----------------||----------------|--------------/13--| 
|------------------|-9--------------||----------------|-------------------| 
|------------------|----------------||----------------|-------------------| 
|------------------|----------------||----------------|-------------------| 
| 
| Q  E E E E E E     Q  E E E E E E    Q  E E E E E E   Q  E E E E E   E 
|------------------|----------------||----------------|-------------------| 
|--------0-0-0-----|--------0-0-0-0-||-0--0---2-2-2-0-|-0--0---2-2-2---0--| 
|-4--4---1-1-1-4---|-4--4---1-1-1-1-||-1--1---2-2-2-1-|-1--1---2-2-2---1--| 
|-4--4---2-2-2-4---|-4--4---2-2-2-2-||-2--2---2-2-2-2-|-2--2---2-2-2---2--| 
|-2--2---2-2-2-2---|-2--2---2-2-2-2-||-2--2---0-0-0-2-|-2--2---0-0-0---2--| 
|-2--2---0-0-0-2---|-2--2---0-0-0-0-||-0--0---0-0-0-0-|-0--0---0-0-0---0--| 


             A/E E             A/E E 
   E  E  E E E E E E   E E E E E E Q 
|-12----10---9---7---|-5---4---2---0---| 
|--------------------|-----------------| 
|----11----9---7---6-|---4---2---1-----| 
|--------------------|-----------------| 
|--------------------|-----------------| 
|--------------------|-----------------| 
| 
|  Q     E E E E E E   Q   E E E E E E 
|--------------------|-----------------| 
|--0-----0---2-2-2-0-|-0---0---2-2-2-0-| 
|--1-----1---2-2-2-1-|-1---1---2-2-2-1-| 
|--2-----2---2-2-2-2-|-2---2---2-2-2-2-| 
|--2-----2---0-0-0-2-|-2---2---0-0-0-2-| 
|--0-----0---0-0-0-0-|-0---0---0-0-0-0-| 


  B5/F#   E     B5/F#              E     B5/F# 
   Q  E E E E E E      +Q      Q   Q   Q 
|--------------------|---------------------| 
|-----7--------------|-----------------7---| 
|-----8-----9---7tr8-|-(7tr8)--------------| 
|-/9------9----------|---------------------| 
|--------------------|---------------------| 
|--------------------|---------------------| 
| 
|  Q  E E E E E E       Q      E E E E E E 
|--------------------|---------------------| 
|---------0-0-0------|-------------0-0-0---| 
|--4--4---1-1-1-4----|--4------4---1-1-1-4-| 
|--4--4---2-2-2-4----|--4------4---2-2-2-4-| 
|--2--2---2-2-2-2----|--2------2---2-2-2-2-| 
|--2--2---0-0-0-2----|--2------2---0-0-0-2-| 


              E     B5/F#                E     B5/F#B5/F# 
  E     +E  E E E E E E      +Q      Q   Q   E E 
|-9pb11r(9)----------------|---------------------|| 
|-----------------9--------|---------------------|| 
|-----------8-----9---7tr8-|-(7tr8)------------7-|| 
|-------------9-9----------|-----------------9---|| 
|--------------------------|---------------------|| 
|--------------------------|---------------------|| 
| 
| Q         E E E E E E       Q      E E E E E E 
|--------------------------|---------------------|| 
|---------------0-0-0------|-------------0-0-0---|| 
|-4---------4---1-1-1-4----|--4------4---1-1-1-4-|| 
|-4---------4---2-2-2-4----|--4------4---2-2-2-4-|| 
|-2---------2---2-2-2-2----|--2------2---2-2-2-2-|| 
|-2---------2---0-0-0-2----|--2------2---0-0-0-2-|| 


 Guitar Solo 2 
           E     B5/F#        E     B5/F# 
  +W                 +H.          E E 
|------------------|--------------7---| 
|------------------|----------------7-| 
|-(7)--------------|-(7)--------------| 
|------------------|------------------| 
|------------------|------------------| 
|------------------|------------------| 
| 
|  Q   E E E E E E    Q   E E E E E E 
|------------------|------------------| 
|----------0-0-0---|----------0-0-0---| 
|--4---4---1-1-1-4-|--4---4---1-1-1-4-| 
|--4---4---2-2-2-4-|--4---4---2-2-2-4-| 
|--2---2---2-2-2-2-|--2---2---2-2-2-2-| 
|--2---2---0-0-0-2-|--2---2---0-0-0-2-| 


            E      B5/F#        E       B5/F# 
  +Q    Q    E E E E   +H       E  E  E  E 
|--------------------|---------------11-11-| 
|-(7)\---------------|---------------12-12-| 
|----------------9-8-|-(8)--------11-------| 
|--------------9-----|---------------------| 
|-----------11-------|---------------------| 
|--------------------|---------------------| 
| 
|  Q    E E  E E E E    Q   E E E  E  E  E 
|--------------------|---------------------| 
|------------0-0-0---|----------0--0--0----| 
|--4----4----1-1-1-4-|--4---4---1--1--1--4-| 
|--4----4----2-2-2-4-|--4---4---2--2--2--4-| 
|--2----2----2-2-2-2-|--2---2---2--2--2--2-| 
|--2----2----0-0-0-2-|--2---2---0--0--0--2-| 


             E        B5/F#          E      B5/F# 
   +Q    Q    E  E  Q      +Q    E E E  E E  E 
|-(11)------------------|-------11-----12---11-| 
|-(12)----------12------|-------12-----12---12-| 
|-------11---13----11---|-(11)---------13---11-| 
|-----------------------|----------------------| 
|-----------------------|----------------------| 
|-----------------------|----------------------| 
| 
|   Q    E E  E  E  E E     Q    E E E  E E  E 
|-----------------------|----------------------| 
|-------------0--0--0---|------------0--0-0----| 
|---4----4----1--1--1-4-|---4----4---1--1-1--4-| 
|---4----4----2--2--2-4-|---4----4---2--2-2--4-| 
|---2----2----2--2--2-2-|---2----2---2--2-2--2-| 
|---2----2----0--0--0-2-|---2----2---0--0-0--2-| 


            E     B5/F#             E 
   Q   Q    H         E  E S    +S  E E E    +E  E 
|-11----------------|------------------------------| 
|-12----------------|---10-----------------------7-| 
|-11--11\-----------|------9b11-(9)-9-8-9b11-(9)---| 
|-------------------|------------------------------| 
|-------------------|------------------------------| 
|-------------------|------------------------------| 
| 
|  Q   E  E E E E E   Q    E        E E E     E  E 
|-------------------|------------------------------| 
|-----------0-0-0---|-----------------0-0-----0--0-| 
|--4---4----1-1-1-4-|-4----4----------1-1-----1--1-| 
|--4---4----2-2-2-4-|-4----4----------2-2-----2--2-| 
|--2---2----2-2-2-2-|-2----2----------2-2-----2--2-| 
|--2---2----0-0-0-2-|-2----2----------0-0-----0--0-| 


                A/E           E                         A/E      E 
                                                      ~~~~~~~ 
  Q   E     +E   Q       S     +S  E    E      +E  E  E  +Q    Q 
|-7--------------------------------7-|-----------------------------| 
|----10b12-(10)-10b12---10b12-(10)---|-10pb12r(10)-7-10-(10)-------| 
|------------------------------------|-----------------------------| 
|------------------------------------|-----------------------------| 
|------------------------------------|-----------------------------| 
|------------------------------------|-----------------------------| 
| 
| Q   E      E   E    E  E         E    Q          E  E   E  E E E 
|------------------------------------|-----------------------------| 
|-0---0----------2----2--2---------0-|--0----------0------2--2-2-0-| 
|-1---1----------2----2--2---------1-|--1----------1------2--2-2-1-| 
|-2---2----------2----2--2---------2-|--2----------2------2--2-2-2-| 
|-2---2----------0----0--0---------2-|--2----------2------0--0-0-2-| 
|-0---0----------0----0--0---------0-|--0----------0------0--0-0-0-| 


       A/E E                           A/E      E 
                               ~~ 
  E  E E E +E   E     +Q       Q  E  E S    +S  E E    +E 
|--------7-(7)-10b12-(10)---|-10--7------------------------| 
|------7--------------------|-------10----------7----------| 
|-9-10----------------------|----------9b11-(9)---9b11-(9)-| 
|---------------------------|------------------------------| 
|---------------------------|------------------------------| 
|---------------------------|------------------------------| 
| 
| Q    E E  E   E      E  E    Q  E  E E        E E     E 
|---------------------------|------------------------------| 
|-0----0----2---2------2--0-|--0--0----2--------2-2-----0--| 
|-1----1----2---2------2--1-|--1--1----2--------2-2-----1--| 
|-2----2----2---2------2--2-|--2--2----2--------2-2-----2--| 
|-2----2----0---0------0--2-|--2--2----0--------0-0-----2--| 
|-0----0----0---0------0--0-|--0--0----0--------0-0-----0--| 


  B5/F#       E     B5/F#      E         B5/F# 
  E   +E  E E H         E E  E E   +Q    Q 
|---------------------|-----------------------| 
|---------7-----------|---7\------------------| 
|-7b9-(7)-------------|------9-7b8-(7)--------| 
|---------------------|-----------------------| 
|---------------------|-----------------------| 
|---------------------|-----------------------| 
| 
| Q       E E E E E E   Q    E E    E  E E E 
|---------------------|-----------------------| 
|-------------0-0-0---|-------------0--0-0----| 
|-4-------4---1-1-1-4-|-4----4------1--1-1-4--| 
|-4-------4---2-2-2-4-|-4----4------2--2-2-4--| 
|-2-------2---2-2-2-2-|-2----2------2--2-2-2--| 
|-2-------2---0-0-0-2-|-2----2------0--0-0-2--| 


         E     B5/F#          E B5/F# 
  W                H      Q   E E 
|----------------|--------------7-| 
|----------------|--------------7-| 
|----------------|------------8---| 
|----------------|----------------| 
|----------------|----------------| 
|----------------|----------------| 
| 
| Q  E E E E E E   Q  E E E E E E 
|----------------|----------------| 
|--------0-0-0---|--------0-0-0---| 
|-4--4---1-1-1-4-|-4--4---1-1-1-4-| 
|-4--4---2-2-2-4-|-4--4---2-2-2-4-| 
|-2--2---2-2-2-2-|-2--2---2-2-2-2-| 
|-2--2---0-0-0-2-|-2--2---0-0-0-2-| 


           E     B5/F#              E     B5/F# 
  +H       H         E  E E     +E  E E E E 
|-(7)--------------|--------------------------| 
|-(7)--------------|---10---------------7-----| 
|------------------|------9pb11r(9)-7-9---7b8-| 
|------------------|--------------------------| 
|------------------|--------------------------| 
|------------------|--------------------------| 
| 
|  Q   E E E E E E   Q    E      E  E E E E 
|------------------|--------------------------| 
|----------0-0-0---|----------------0-0-0-----| 
|--4---4---1-1-1-4-|-4----4---------1-1-1-4---| 
|--4---4---2-2-2-4-|-4----4---------2-2-2-4---| 
|--2---2---2-2-2-2-|-2----2---------2-2-2-2---| 
|--2---2---0-0-0-2-|-2----2---------0-0-0-2---| 


           E     B5/F#     E     B5/F# 
  +Q   Q   H         E E E E E E E E 
|------------------|-----------7---7b8-| 
|------------------|-------7-----------| 
|-(7)--------------|---7---------------| 
|------------------|-------------------| 
|------------------|-------------------| 
|------------------|-------------------| 
| 
|  Q   E E E E E E   Q   E E E E E E 
|------------------|-------------------| 
|----------0-0-0---|---------0-0-0-----| 
|--4---4---1-1-1-4-|-4---4---1-1-1-4---| 
|--4---4---2-2-2-4-|-4---4---2-2-2-4---| 
|--2---2---2-2-2-2-|-2---2---2-2-2-2---| 
|--2---2---0-0-0-2-|-2---2---0-0-0-2---| 


        E         B5/F#       E     B5/F# 
  +E  E Q   H         E  E  E E E E Q 
|-(7)---------------|---------7-7-7------| 
|-------------------|---10\---------9\---| 
|-------------------|--------------------| 
|-------------------|--------------------| 
|-------------------|--------------------| 
|-------------------|--------------------| 
| 
|  Q    E E E E E E   Q     E E E E E  E 
|-------------------|--------------------| 
|-----------0-0-0---|-----------0-0-0----| 
|--4----4---1-1-1-4-|-4-----4---1-1-1--4-| 
|--4----4---2-2-2-4-|-4-----4---2-2-2--4-| 
|--2----2---2-2-2-2-|-2-----2---2-2-2--2-| 
|--2----2---0-0-0-2-|-2-----2---0-0-0--2-| 


         E     B5/F#                      E                  B5/F# 
  W                 H                      H 
|----------------|-----------------------------------------------| 
|----------------|-10---------------------10---------------------| 
|----------------|--9pb11r(9)b11==(9)r(9)--9pb11r(9)b11==(9)r(9)-| 
|----------------|-----------------------------------------------| 
|----------------|-----------------------------------------------| 
|----------------|-----------------------------------------------| 
|                   E     +E      +E  +E   E     +E      +E  +E 
| 
| Q  E E E E E E    Q              E   E   E      E       E   E 
|----------------|-----------------------------------------------| 
|--------0-0-0---|-------------------------0------0-------0------| 
|-4--4---1-1-1-4-|--4--------------4-------1------1-------1---4--| 
|-4--4---2-2-2-4-|--4--------------4-------2------2-------2---4--| 
|-2--2---2-2-2-2-|--2--------------2-------2------2-------2---2--| 
|-2--2---0-0-0-2-|--2--------------2-------0------0-------0---2--| 


  E         A/E  E                        A/E                  E 
   E    +E   Q    Q    Q      E    +E   E  E  E  S     +S  +E   E 
|--------------------------|---------------------------------------| 
|-10--------10---10---10---|-10--------10-10-10-10-------------10--| 
|--9b11-(9)--9----7----9---|--9b11-(9)--9--9--9--9b10==(9)r(9)--7--| 
|--------------------------|---------------------------------------| 
|--------------------------|---------------------------------------| 
|--------------------------|---------------------------------------| 
| 
|  Q         E E  E E  E E    Q         E  E  E  E          E   E 
|--------------------------|---------------------------------------| 
|--0---------0----2-2--2-0-|--0---------0-----2--2----------2---0--| 
|--1---------1----2-2--2-1-|--1---------1-----2--2----------2---1--| 
|--2---------2----2-2--2-2-|--2---------2-----2--2----------2---2--| 
|--2---------2----0-0--0-2-|--2---------2-----0--0----------0---2--| 
|--0---------0----0-0--0-0-|--0---------0-----0--0----------0---0--| 


               A/E        E         A/E   E     B5/F#  E         B5/F# 
   E  S    +S   Q   Q   E E   E E E E E E Q     Q  Q   E   +E  Q 
|---------------------------|-----------------|---------------------| 
|-10-10--------10-----------|-----------------|---------------------| 
|--9--9b11-(9)--7---------7-|-7h9-------------|--------7b8-(7)------| 
|-------------------9---7---|-7h9-7-----------|----9----------------| 
|---------------------------|-------9s7-5-----|---------------------| 
|---------------------------|-------------7---|---------------------| 
| 
|  Q            E E E E E E   Q   E E E E E E   Q  E E E    E  E E 
|---------------------------|-----------------|---------------------| 
|--0------------0---2-2-2-0-|-0---0---2-2-2-0-|--------0----0--0----| 
|--1------------1---2-2-2-1-|-1---1---2-2-2-1-|-4--4---1----1--1-4--| 
|--2------------2---2-2-2-2-|-2---2---2-2-2-2-|-4--4---2----2--2-4--| 
|--2------------2---0-0-0-2-|-2---2---0-0-0-2-|-2--2---2----2--2-2--| 
|--0------------0---0-0-0-0-|-0---0---0-0-0-0-|-2--2---0----0--0-2--| 


                E      B5/F#         E     B5/F#               E           B5/F# 
                 ~~ 
  Q   E     +E   Q   Q      S E. Q   H         Q   S     +E.    +Q     +E  E 
|------------------------|-------------------|----11b14-(11)---(11)---(11)----| 
|----10b12-(10)-12-------|-12S7--------------|--------------------------------| 
|------------------------|-------------------|--------------------------------| 
|------------------------|-------------------|--------------------------------| 
|------------------------|-------------------|--------------------------------| 
|------------------------|-------------------|--------------------------------| 
| 
| Q   E      E   E E E E    Q    E E E E E E   Q   E         E   E  E   E  E 
|------------------------|-------------------|--------------------------------| 
|----------------0-0-0---|-----------0-0-0---|-------------------0--0---0-----| 
|-4---4----------1-1-1-4-|--4----4---1-1-1-4-|-4---4-------------1--1---1--4--| 
|-4---4----------2-2-2-4-|--4----4---2-2-2-4-|-4---4-------------2--2---2--4--| 
|-2---2----------2-2-2-2-|--2----2---2-2-2-2-|-2---2-------------2--2---2--2--| 
|-2---2----------0-0-0-2-|--2----2---0-0-0-2-|-2---2-------------0--0---0--2--| 


                 E       B5/F#           E       B5/F# 
                  ~~            ~~~~              ~~~ 
   E     +E  Q    Q    E  E    +Q   E  E E  E  E  E 
|-10b11-(10)----------------|-----------------------| 
|----------------12---10-12-|-(12)----12---12----12-| 
|---------------------------|-----------------13----| 
|---------------------------|-----------------------| 
|---------------------------|-----------------------| 
|---------------------------|-----------------------| 
| 
|  Q         E E  E E  E  E     Q   E  E E  E  E  E 
|---------------------------|-----------------------| 
|-----------------0-0--0----|------------0--0--0----| 
|--4---------4----1-1--1--4-|---4---4----1--1--1--4-| 
|--4---------4----2-2--2--4-|---4---4----2--2--2--4-| 
|--2---------2----2-2--2--2-|---2---2----2--2--2--2-| 
|--2---------2----0-0--0--2-|---2---2----0--0--0--2-| 


             E              B5/F# 
 ~~~~~~ 
   +Q    E E  E      +E   Q 
|-----------------------------*| 
|-(12)-------14pb15r(14)-12---*| 
|-------13--------------------*| 
|-----------------------------*| 
|-----------------------------*| 
|-----------------------------*| 
| 
|   Q    E E  E       E   E E 
|-----------------------------*| 
|-------------0-------0---0---*| 
|---4----4----1-------1---1-4-*| 
|---4----4----2-------2---2-4-*| 
|---2----2----2-------2---2-2-*| 
|---2----2----0-------0---0-2-*| 


Duration Legend 
--------------- 
W - whole; H - half; Q - quarter; E - 8th; S - 16th; T - 32nd; X - 64th; a - acciaccatura 
+ - note tied to previous; . - note dotted; .. - note double dotted 
Uncapitalized letters represent notes that are staccato (1/2 duration) 
Irregular groupings are notated above the duration line 
Duration letters will always appear directly above the note/fret number it represents the 
duration for.  Duration letters with no fret number below them represent rests.  Multi- 
bar rests are notated in the form Wxn, where n is the number of bars to rest for.  Low 
melody durations appear below the staff 

Tablature Legend 
---------------- 
 h   - hammer-on 
 p   - pull-off 
 b   - bend 
 pb  - pre-bend 
 r   - bend release (if no number after the r, then release immediately) 
 /\  - slide into or out of (from/to "nowhere") 
 s   - legato slide 
 S   - shift slide 
  - natural harmonic 
n  - artificial harmonic 
n(n) - tapped harmonic 
 ~   - vibrato 
 tr  - trill 
 T   - tap 
 TP  - trem. picking 
 PM  - palm muting 
\n/  - tremolo bar dip; n = amount to dip 
 \n  - tremolo bar down 
 n/  - tremolo bar up 
/n\  - tremolo bar inverted dip 
 =   - hold bend; also acts as connecting device for hammers/pulls 
 <>  - volume swell (louder/softer) 
 x   - on rhythm slash represents muted slash 
 o   - on rhythm slash represents single note slash 

Misc Legend 
----------- 
 |  - bar 
||  - double bar 
||o - repeat start 
o|| - repeat end 
*|  - double bar (ending) 
 :  - bar (freetime) 
 $  - Segno 
 &  - Coda 
Tempo markers -  = BPM(8/16=s8/s16), where s8 = swing 8ths, s16 = swing 16ths 
	  

Full key step upFull key step up
Half key step upHalf key step up
Half key step downHalf key step down
Full key step downFull key step down
Search Paypal
auto scroll beats size up size down change color hide chords drawings
tab show chords e-chords YouTube Clip e-chords hide all tabs e-chords go to top tab