Eric Clapton

home > Eric Clapton

Cocaine, live, LIVE. Tab

Eric Clapton

Difficulty: ExpertExpert

by Vallim+guitar

tuner correct add songbook print version text version save to e-mail
chordsukulelecavacokeyboardtabbassdrumsharmonicsflute Guitar Pro
chords

Cocaine, live, LIVE.

  		 
  
 
Gtr I (E A D G B E) - 'guitar 1' 
Gtr II (E A D G B E) - 'guitar 2' 
Gtr III (E A D G B E) - 'solo1' 
Gtr IV (E A D G B E) - 'solo2' 
 
 
  Q=107 
 4/4 
  Gtr I 
  E E  E E Q  S S  E    +W 
|--------------------|---------------------| 
|--------------------|---------------------| 
|-9-9--7-9---------7-|--(7)----------------| 
|-9-9--7-9----8----7-|--(7)----------------| 
|-7-7----7----9------|---------------------| 
|-----10------9---10-|-(10)----------------| 
| 
| Gtr II 
| E E  E E Q  E    E    +H     S S S S E E 
|--------------------|---------------------| 
|--------------------|---------------------| 
|-9-9--7-9---------7-|--(7)----------------| 
|-9-9--7-9---------7-|--(7)------------0---| 
|-7-7----7-----------|-----------2-2-2-2---| 
|-----10----------10-|-(10)----5-5-5-5-----| 
 
 
  E    E  E  E  Q    E     E    +W 
|----------------------------|--------------------------| 
|----------------------------|--------------------------| 
|-9----9--7--9-------------7-|--(7)---------------------| 
|-9----9--7--9-------------7-|--(7)---------------------| 
|-7----7-----7---------------|--------------------------| 
|--------10---------------10-|-(10)---------------------| 
| 
| S E.   +Q    +Q   +S  S  E     E  E +S  S E E E E E 
|----------------------------|--------------------------| 
|----------------------------|--------------------------| 
|----------------------------|--------------------------| 
|-0-2----(2)---(2)--(2)------|------0-(0)-----0---------| 
|----------------------------|------------0-2---0-------| 
|----------------------------|--------------------3-0---| 
 
 
  E E  E E Q  S S  E    +W 
|--------------------|---------------------| 
|--------------------|---------------------| 
|-9-9--7-9---------7-|--(7)----------------| 
|-9-9--7-9----8----7-|--(7)----------------| 
|-7-7----7----9------|---------------------| 
|-----10------9---10-|-(10)----------------| 
| 
| W                      S  E S Q  E E E E 
|--------------------|---------------------| 
|--------------------|---3-----------------| 
|--------------------|------4---2--0-1-----| 
|-2------------------|-----------------2-0-| 
|--------------------|---------------------| 
|--------------------|---------------------| 
 
 
  E  E  E E Q  S S  E    +W 
|---------------------|------------------| 
|---------------------|------------------| 
|-9--9--7-9---------7-|--(7)-------------| 
|-9--9--7-9----8----7-|--(7)-------------| 
|-7--7----7----9------|------------------| 
|------10------9---10-|-(10)-------------| 
| 
| H.           E    E     S  E S Q  H 
|---------------------|------------------| 
|---------------------|------------------| 
|---------------------|------------------| 
|-2------------2------|--------0-0-------| 
|---------------------|---0--2---0-------| 
|---------------------|-------------3----| 
 
 
   E  E  E E Q  E    E    +W           E E  E E Q  S S  E    +W 
|----------------------|-------------|--------------------|---------| 
|----------------------|-------------|--------------------|---------| 
|--9--9--7-9---------7-|--(7)--------|-9-9--7-9---------7-|--(7)----| 
|--9--9--7-9---------7-|--(7)--------|-9-9--7-9----8----7-|--(7)----| 
|--7--7----7-----------|-------------|-7-7----7----9------|---------| 
|-------10----------10-|-(10)--------|-----10------9---10-|-(10)----| 
| 
| +E  E  E E Q  S S  E    +W           E E  E E Q  E    E    +W 
|----------------------|-------------|--------------------|---------| 
|-----5--3-5---------3-|--(3)--------|-5-5--3-5---------3-|--(3)----| 
|-----4--2-4----3----2-|--(2)--------|-4-4--2-4---------2-|--(2)----| 
|-----2--0-2----4----0-|--(0)--------|-2-2--0-2---------0-|--(0)----| 
|---------------4------|-------------|--------------------|---------| 
|-(3)------------------|-------------|--------------------|---------| 
 
 
  E E  E E Q  E  E    +W           E E  E E Q  E  E    +H      +Q.   E 
|------------------|-------------|------------------|------------------| 
|------------------|-------------|------------------|------------------| 
|-9-9--7-9-------7-|--(7)--------|-9-9--7-9-------7-|--(7)-----(7)---9-| 
|-9-9--7-9-------7-|--(7)--------|-9-9--7-9-------7-|--(7)-----(7)---9-| 
|-7-7----7---------|-------------|-7-7----7---------|----------------7-| 
|-----10--------10-|-(10)--------|-----10--------10-|-(10)----(10)-----| 
| 
| E E  E E Q  E  E    +W           E E  E E Q  E  E    +H      +Q.   E 
|------------------|-------------|------------------|------------------| 
|-5-5--3-5-------3-|--(3)--------|-5-5--3-5-------3-|--(3)-----(3)---5-| 
|-4-4--2-4-------2-|--(2)--------|-4-4--2-4-------2-|--(2)-----(2)---4-| 
|-2-2--0-2-------0-|--(0)--------|-2-2--0-2-------0-|--(0)-----(0)---2-| 
|------------------|-------------|------------------|------------------| 
|------------------|-------------|------------------|------------------| 
 
 
  +Q.    E  +Q.    E    +H     E E Q 
|--------------------|----------------| 
|--------------------|----------------| 
|-(9)----7--(7)------|----------------| 
|-(9)----7--(7)---10-|-(10)----9------| 
|-(7)-------------10-|-(10)----9------| 
|-------10-(10)----8-|--(8)----7------| 
| 
| +Q.    E  +Q.    E    +H     E E Q 
|--------------------|----------------| 
|-(5)----3--(3)------|----------------| 
|-(4)----2--(2)----5-|--(5)----4------| 
|-(2)----0--(0)----5-|--(5)----4------| 
|------------------3-|--(3)----2------| 
|--------------------|----------------| 
 
 
  E E  E E Q  E  E    +H      E. S S S E 
|------------------|----------------------| 
|------------------|----------------------| 
|-9-9--7-9-------7-|--(7)-----7----7---7--| 
|-9-9--7-9-------7-|--(7)-----7--4-7-4-7--| 
|-7-7----7---------|-------------4-5-4-5--| 
|-----10--------10-|-(10)----10--4---4----| 
| 
| E E  E E Q  E  E    +H      E. S S S E 
|------------------|----------------------| 
|-5-5--3-5-------3-|--(3)-----3-----------| 
|-4-4--2-4-------2-|--(2)-----2----7---7--| 
|-2-2--0-2-------0-|--(0)-----0--4-7-4-7--| 
|------------------|-------------4-5-4-5--| 
|------------------|-------------4---4----| 
 
 
  Gtrs I, II 
  E E  E E Q  S S E   +W           E E  E E Q  E  E    +W 
|-------------------|------------|------------------|---------| 
|-------------------|------------|------------------|---------| 
|-9-9--7-9--------7-|-(7)--------|-9-9--7-9-------7-|--(7)----| 
|-9-9--7-9----4---7-|-(7)--------|-9-9--7-9-------7-|--(7)----| 
|-7-7----7----4---5-|-(5)--------|-7-7----7---------|---------| 
|-----10------4-----|------------|-----10--------10-|-(10)----| 
 
 
  E E  E E Q  S S  E    +W           E E  E E Q  E  E    +W 
|--------------------|-------------|------------------|---------| 
|--------------------|-------------|------------------|---------| 
|-9-9--7-9---------7-|--(7)--------|-9-9--7-9-------7-|--(7)----| 
|-9-9--7-9----8----7-|--(7)--------|-9-9--7-9-------7-|--(7)----| 
|-7-7----7----9------|-------------|-7-7----7---------|---------| 
|-----10------9---10-|-(10)--------|-----10--------10-|-(10)----| 
 
 
  E E  E E Q  E  E    +H      +Q.   E   +Q.    E  +Q.    E    +H     E E Q 
|------------------|------------------|--------------------|----------------| 
|------------------|------------------|--------------------|----------------| 
|-9-9--7-9-------7-|--(7)-----(7)---9-|-(9)----7--(7)------|----------------| 
|-9-9--7-9-------7-|--(7)-----(7)---9-|-(9)----7--(7)---10-|-(10)----9------| 
|-7-7----7---------|----------------7-|-(7)-------------10-|-(10)----9------| 
|-----10--------10-|-(10)----(10)-----|-------10-(10)----8-|--(8)----7------| 
 
 
  E E  E E Q  E  E    +H      E. S S S E   E E  E E Q  S S E   +W 
|------------------|---------------------|-------------------|--------| 
|------------------|---------------------|-------------------|--------| 
|-9-9--7-9-------7-|--(7)-----7----7---7-|-9-9--7-9--------7-|-(7)----| 
|-9-9--7-9-------7-|--(7)-----7--4-7-4-7-|-9-9--7-9----4---7-|-(7)----| 
|-7-7----7---------|-------------4-5-4-5-|-7-7----7----4---5-|-(5)----| 
|-----10--------10-|-(10)----10--4---4---|-----10------4-----|--------| 
 
 
  E E  E E  Q   E  E    +W 
|--------------------|----------------------| 
|--------------------|----------------------| 
|-9-9--7-9---------7-|--(7)-----------------| 
|-9-9--7-9---------7-|--(7)-----------------| 
|-7-7----7-----------|----------------------| 
|-----10----------10-|-(10)-----------------| 
| 
| Gtr III 
| E E  E E +Q.     E    +Q   S S E S E. E E 
|------------------3-|--(3)-----------------| 
|------3-5-(5)-------|-------5-3-5-3-5--5-3-| 
|---4----------------|----------------------| 
|--------------------|----------------------| 
|--------------------|----------------------| 
|--------------------|----------------------| 
 
 
  E E  E E  Q     E   E    +W 
|-----------------------|-----------------| 
|-----------------------|-----------------| 
|-9-9--7-9------------7-|--(7)------------| 
|-9-9--7-9------------7-|--(7)------------| 
|-7-7----7--------------|-----------------| 
|-----10-------------10-|-(10)------------| 
| 
| E E  E E +E  E +Q         H     Q   Q 
|------3-3-(3)----------|-------------7---| 
|-5-5----------5-(5)----|------------10---| 
|-----------------------|-----------------| 
|-----------------------|-----------------| 
|-----------------------|-----------------| 
|-----------------------|-----------------| 
 
 
   E E  E E   Q   E  E    +W 
|----------------------|---------------------| 
|----------------------|---------------------| 
|--9-9--7-9----------7-|--(7)----------------| 
|--9-9--7-9----------7-|--(7)----------------| 
|--7-7----7------------|---------------------| 
|------10-----------10-|-(10)----------------| 
| 
|  Q    Q    +Q.     E    +Q    Q   Q   E. S 
|--7----7----(7)-----7-|--(7)---7---7---7--7-| 
|-10---10---(10)----10-|-(10)--10--10--10----| 
|----------------------|---------------------| 
|----------------------|---------------------| 
|----------------------|---------------------| 
|----------------------|---------------------| 
 
 
  E E  E E Q    E  E    +W 
|--------------------|--------------------------------| 
|--------------------|--------------------------------| 
|-9-9--7-9---------7-|--(7)---------------------------| 
|-9-9--7-9---------7-|--(7)---------------------------| 
|-7-7----7-----------|--------------------------------| 
|-----10----------10-|-(10)---------------------------| 
| 
| E E  E E S E. E  E     Q   S E  S  S  S  S  S E  E 
|-5-3----------------|-------5-5-12-10----------------| 
|------5-5-3-5--5--3-|-----------------12-10-10-8-10--| 
|--------------------|--------------------------------| 
|--------------------|--------------------------------| 
|--------------------|--------------------------------| 
|--------------------|--------------------------------| 
 
 
    E  E  E E Q  E    E    +W 
|-----------------------|-------------------------------------| 
|-----------------------|-------------------------------------| 
|---9--9--7-9---------7-|--(7)--------------------------------| 
|---9--9--7-9---------7-|--(7)--------------------------------| 
|---7--7----7-----------|-------------------------------------| 
|--------10----------10-|-(10)--------------------------------| 
| 
|  +E  E  E E Q  S S  E     E  S S S  S  S  S  S  S S S  E  E 
|-----------------------|--------5-7-12-12--------------------| 
|-(10)-8---------5------|---------------15-12-10-10-8---10-12-| 
|---------9-9-7---------|-----------------------------9-------| 
|-----------------------|-------------------------------------| 
|-----------------------|-------------------------------------| 
|-----------------------|-------------------------------------| 
 
 
   E  E  E  E  Q     E  E 
|-------------------------| 
|-------------------------| 
|--9--9--7--9-----------7-| 
|--9--9--7--9-----------7-| 
|--7--7-----7-------------| 
|-------10-------------10-| 
| 
|  E  E  E  E  E  E  Q 
|-10-10-10-10-10----------| 
|-------10-10-10-12-------| 
|----------------12-------| 
|-------------------14----| 
|-------------------------| 
|-------------------------| 
 
 
   +W 
|-------------------------------------------| 
|-------------------------------------------| 
|--(7)--------------------------------------| 
|--(7)--------------------------------------| 
|-------------------------------------------| 
|-(10)--------------------------------------| 
| 
|   E   S  S  +S   E  S  +S   S  E  E  S  S 
|------12-10-(10)-10-10-(10)----------------| 
|-----------------10-10-(10)-12----12-------| 
|----------------------------12----12-------| 
|-------------------------------14----14-12-| 
|-------------------------------------------| 
|-------------------------------------------| 
 
 
   E E  E    E      Q        E  E    +W 
|---------------------------------|-----------------------------------------| 
|---------------------------------|-----------------------------------------| 
|--9-9--7----9------------------7-|--(7)------------------------------------| 
|--9-9--7----9------------------7-|--(7)------------------------------------| 
|--7-7-------7--------------------|-----------------------------------------| 
|------10----------------------10-|-(10)------------------------------------| 
| 
|  Q    S  E    S  +S  S  E  Q        S   E  S  +S   S  E  S  S  E  S  S  E 
|---------------------------------|-----------------------------------------| 
|--------------12-(12)---12-------|-----------------------------------------| 
|------12-12---12-(12)---12-------|---------12-(12)----12-12----12-12-------| 
|-14---12-14----------------14----|---------12-(12)----12-12----12-14-12-14-| 
|---------------------------------|--12--14---------14-------14-------------| 
|---------------------------------|-----------------------------------------| 
 
 
   E  E  E      E  Q     E  E    +W 
|-----------------------------|------------------------------------------| 
|-----------------------------|------------------------------------------| 
|--9--9--7------9-----------7-|--(7)-------------------------------------| 
|--9--9--7------9-----------7-|--(7)-------------------------------------| 
|--7--7---------7-------------|------------------------------------------| 
|-------10-----------------10-|-(10)-------------------------------------| 
| 
|  E  E  E      E  E  E  Q       +E   S  S  +S   S   E  S  E  S  E     E 
|-----------------------------|------12-10-(10)-12--10-12-12-12-12----12-| 
|-------12-----14-14-12-------|---------------------------15----15-------| 
|-------12-----14-14-12-------|------------------------------------------| 
|-14-14-----------------14----|-(14)-------------------------------------| 
|-----------------------------|------------------------------------------| 
|-----------------------------|------------------------------------------| 
| 
| Gtr IV 
|  E  E +S  E.     Q     E  E    +Q          S   E.     Q        S E. 
|-----5-(5)-5------5-----3----|------------------------------------------| 
|---------------------------5-|--(5)---------3---5------5--------3-5-----| 
|-----------------------------|------------------------------------------| 
|-----------------------------|------------------------------------------| 
|-----------------------------|------------------------------------------| 
|-----------------------------|------------------------------------------| 
 
 
   E  E  E  E      Q          E      E 
|-----------------------------------------| 
|-----------------------------------------| 
|--9--9--7--9------------------------7----| 
|--9--9--7--9------------------------7----| 
|--7--7-----7-----------------------------| 
|-------10--------------------------10----| 
| 
|  E  E  E  E      E      E  +S   S  S  S 
|-12-12-12-10-----10-----12-(12)-12-10----| 
|-15-15--------------------------------12-| 
|-----------------------------------------| 
|-----------------------------------------| 
|-----------------------------------------| 
|-----------------------------------------| 
| 
|  E  E  E  S  S  +S   S  E   E      E 
|----10-10------------10------------------| 
|----------12-10-(10)----10---8-----------| 
|-----------------------------------------| 
|-----------------------------------------| 
|-----------------------------------------| 
|-----------------------------------------| 
 
 
   +W 
|-------------------------------------------------| 
|-------------------------------------------------| 
|--(7)--------------------------------------------| 
|--(7)--------------------------------------------| 
|-------------------------------------------------| 
|-(10)--------------------------------------------| 
| 
|   S   S  S  S   S   S  S  S S S  S  S  +S  S  E 
|-------------------------------------------------| 
|--10--10--8------8--10-10-10---8-10-10-(10)-8----| 
|-------------9---------------------------------9-| 
|-------------------------------------------------| 
|-------------------------------------------------| 
|-------------------------------------------------| 
| 
|   E      S  S  +S   E     S S S  E     +E     E 
|---------10--------------------------------------| 
|------------10-(10)-10----10---8-10----(10)---12-| 
|-------------------------------------------------| 
|-------------------------------------------------| 
|-------------------------------------------------| 
|-------------------------------------------------| 
 
 
   E  E  E     E  Q         E   E    +W 
|---------------------------------|-------------------------------------| 
|---------------------------------|-------------------------------------| 
|--9--9--7-----9----------------7-|--(7)--------------------------------| 
|--9--9--7-----9----------------7-|--(7)--------------------------------| 
|--7--7--------7------------------|-------------------------------------| 
|-------10---------------------10-|-(10)--------------------------------| 
| 
| +E  E  Q        H                   S  S  S S  E S S  S S  E    E S S 
|---------------------------------|---------3----5-3----5-3-------3-----| 
|---------------------------------|------5----5------5-------5------5---| 
|-(9)-----------------------------|---7---------------------------------| 
|---------------------------------|-------------------------------------| 
|---------------------------------|-------------------------------------| 
|---------------------------------|-------------------------------------| 
| 
|  Q     S  S  E  S  E  S  +E   E     E     E    Q      E    S S  E E 
|---------------------------------|-------------------------------------| 
|---------------------------------|-------------------------10-8-10-8---| 
|-12-------------12---------------|--------14---14-----12---------------| 
|-------14-12-14----14-12-(12)-14-|-------------------------------------| 
|---------------------------------|-------------------------------------| 
|---------------------------------|-------------------------------------| 
 
 
  E   E    E    E     Q           E     E 
|-----------------------------------------| 
|-----------------------------------------| 
|-9---9----7----9-----------------------7-| 
|-9---9----7----9-----------------------7-| 
|-7---7---------7-------------------------| 
|---------10---------------------------10-| 
| 
| E   E    S S  S  S  S   E    S  S  S  E 
|-----5----5-7-12-10----------------------| 
|--------------------12--14---12-14-12-10-| 
|-----------------------------------------| 
|-----------------------------------------| 
|-----------------------------------------| 
|-----------------------------------------| 
| 
| S E   S  E    S  S +S   S S  S  E     E 
|------------------3-(3)--3---------------| 
|----------5----5-----------5--3--5-----3-| 
|---9---7---------------------------------| 
|-----------------------------------------| 
|-----------------------------------------| 
|-----------------------------------------| 
 
 
                               Gtr II 
   +W                          E E  E E Q  E  E    +W 
|----------------------------|------------------|---------| 
|----------------------------|------------------|---------| 
|--(7)-----------------------|-9-9--7-9-------7-|--(7)----| 
|--(7)-----------------------|-9-9--7-9-------7-|--(7)----| 
|----------------------------|-7-7----7---------|---------| 
|-(10)-----------------------|-----10--------10-|-(10)----| 
| 
|   S   S  E  E  E  Q   E  E   W                    W 
|----------------------------|------------------|---------| 
|----------------------------|------------------|---------| 
|------------------12--------|------------------|---------| 
|------12----12-14-12--------|------------------|---------| 
|------12-14-----------10-12-|------------------|---------| 
|----------------------------|------------------|---------| 
| 
|   W                          W                    W 
|----------------------------|------------------|---------| 
|---5------------------------|------------------|---------| 
|----------------------------|------------------|---------| 
|----------------------------|------------------|---------| 
|----------------------------|------------------|---------| 
|----------------------------|------------------|---------| 
 
 
  Gtr I 
  E E  E E Q  S S  E    +H     S S S S +E  E   E E  Q   H           W 
|--------------------|-----------------------|------------------|---------| 
|--------------------|-----------------------|------------------|---------| 
|--------------------|-----------------------|------------------|---------| 
|-6-6--5-6---------7-|--(7)------------------|------------------|---------| 
|-7-7--5-7----5-7----|---------------5-(5)-7-|------------------|---------| 
|-----------------10-|-(10)----7-7-7---------|-0----------------|---------| 
| 
| Gtr II 
| E E  E E Q  E    E    +W                     E E  E E Q  E  E    +W 
|--------------------|-----------------------|------------------|---------| 
|--------------------|-----------------------|------------------|---------| 
|-9-9--7-9---------7-|--(7)------------------|-9-9--7-9-------7-|--(7)----| 
|-9-9--7-9---------7-|--(7)------------------|-9-9--7-9-------7-|--(7)----| 
|-7-7----7-----------|-----------------------|-7-7----7---------|---------| 
|-----10----------10-|-(10)------------------|-----10--------10-|-(10)----| 
 
 
  E E  E E Q  E  E    +Q.   E   Q   Q      W                     W 
|------------------|--------------------|--------------------|----------------| 
|------------------|--------------------|--------------------|----------------| 
|------------------|--------------------|--------------------|----------------| 
|-6-6--5-6----6--7-|--(7)---7---7-------|--------------------|----------------| 
|-7-7--5-7----7--5-|--(5)---------------|--------------------|----------------| 
|------------------|-----------10-------|--------------------|----------------| 
| 
| E E  E E Q  E  E    +H       +Q.    E   +Q.    E  +Q.    E    +H     E E Q 
|------------------|--------------------|--------------------|----------------| 
|------------------|--------------------|--------------------|----------------| 
|-9-9--7-9-------7-|--(7)------(7)----9-|-(9)----7--(7)------|----------------| 
|-9-9--7-9-------7-|--(7)------(7)----9-|-(9)----7--(7)---10-|-(10)----9------| 
|-7-7----7---------|------------------7-|-(7)-------------10-|-(10)----9------| 
|-----10--------10-|-(10)-----(10)------|-------10-(10)----8-|--(8)----7------| 
 
 
  E E  E E E S S S S  S S    +H     +Q   +S  S E   E E  E S S +S  S E E  E 
|-------------------------|----------------------|-------------------------| 
|-------------------------|----------------------|-------------------------| 
|-------------------------|----------------------|-------------------------| 
|---------------------5-7-|--(7)----(7)--(7)-----|--------------------6--7-| 
|-7-7--5-7-------5-7----5-|--(5)----(5)--(5)-----|------5-5-7-(7)-----7--5-| 
|------------5-7----------|----------------------|-7-7---------------------| 
| 
| E E  E E Q     E    E      +W                    E E  E E    Q      E  E 
|-------------------------|----------------------|-------------------------| 
|-------------------------|----------------------|-------------------------| 
|-9-9--7-9------------7---|--(7)-----------------|-9-9--7-9--------------7-| 
|-9-9--7-9------------7---|--(7)-----------------|-9-9--7-9--------------7-| 
|-7-7----7----------------|----------------------|-7-7----7----------------| 
|-----10-------------10---|-(10)-----------------|-----10---------------10-| 
 
 
   +Q   H        Q      E  E E  E   E  S S S S  S S 
|--------------------|------------------------------| 
|--------------------|------------------------------| 
|--------------------|------------------------------| 
|--(7)--7------------|--------------------------5-7-| 
|--(5)--5------------|--7--7-5--7----------5-7----5-| 
|--------------------|-----------------5-7----------| 
| 
|  +H       +Q.    E   +Q.      E  +Q.          E 
|--------------------|------------------------------| 
|--------------------|------------------------------| 
|--(7)------(7)----9-|-(9)------7--(7)--------------| 
|--(7)------(7)----9-|-(9)------7--(7)---------10---| 
|------------------7-|-(7)---------------------10---| 
|-(10)-----(10)------|---------10-(10)----------8---| 
 
 
   +H     S S E E E   E E  E E Q  E  E 
|-------------------|------------------| 
|-------------------|------------------| 
|---------7-----7---|------------------| 
|--(7)----5-7---7-5-|-6-6--5-6----6--7-| 
|--(5)--------------|-7-7--5-7----7--5-| 
|-------------------|------------------| 
| 
|  +H     E   E Q     E E  E E Q  E  E 
|-------------------|------------------| 
|-------------------|------------------| 
|-------------------|-9-9--7-9-------7-| 
|-(10)----9---------|-9-9--7-9-------7-| 
|-(10)----9---------|-7-7----7---------| 
|--(8)----7---------|-----10--------10-| 
 
 
                 Gtr III 
   +H.      Q    E  E  E  S S  Q   E  E 
|--------------|------------------------| 
|--------------|------------------------| 
|--------------|------------------------| 
|--(7)---------|---14-12-14---14--12-14-| 
|--(5)---------|---16----17-------------| 
|--------------|------------------------| 
| 
|  +W            E  E  E  E    Q   E  E 
|--------------|------------------------| 
|--------------|------------------------| 
|--(7)---------|-9--9--7--9-----------7-| 
|--(7)---------|-9--9--7--9-----------7-| 
|--------------|-7--7-----7-------------| 
|-(10)---------|------10-------------10-| 
 
 
   +E.  S  Q  Q   Q    H         E  E  E  E 
|--------------------|----------10-10----10--| 
|--------------------|----------------12-----| 
|--------------------|-----------------------| 
|-(14)-12-12-----12--|-----------------------| 
|--------------------|-----------------------| 
|--------------------|-----------------------| 
| 
|  +W                  E E  E E  Q     E  E 
|--------------------|-----------------------| 
|--------------------|-----------------------| 
|--(7)---------------|-9-9--7-9-----------7--| 
|--(7)---------------|-9-9--7-9-----------7--| 
|--------------------|-7-7----7--------------| 
|-(10)---------------|-----10------------10--| 
 
 
  Gtr II 
   +W                   E E  E E  Q   E  E 
|---------------------|--------------------| 
|---------------------|--------------------| 
|--(7)----------------|-9-9--7-9---------7-| 
|--(7)----------------|-9-9--7-9---------7-| 
|---------------------|-7-7----7-----------| 
|-(10)----------------|-----10----------10-| 
| 
| Gtr III 
|   Q    E E +E  E Q    Q    Q    Q   Q 
|---------------------|--------------------| 
|--12---10-8-(8)------|--------------------| 
|----------------9----|------9----9---9----| 
|---------------------|-----12---12--12----| 
|---------------------|--------------------| 
|---------------------|--------------------| 
 
 
   +W                    E  E  E   E   Q  E     E 
|---------------------|----------------------------| 
|---------------------|----------------------------| 
|--(7)----------------|--9--9--7---9------------7--| 
|--(7)----------------|--9--9--7---9------------7--| 
|---------------------|--7--7------7---------------| 
|-(10)----------------|-------10---------------10--| 
| 
|  +Q    Q   +E. S Q    +Q     S E   S Q  S E. 
|---------------------|----------------------------| 
|------------------5--|-(5)----3-5-----5--3-5------| 
|--(9)---9---(9)-7----|----------9-----------------| 
|-(12)--12--(12)------|----------------------------| 
|---------------------|----------------------------| 
|---------------------|----------------------------| 
 
 
   +W                      E  E  E   E   Q     E  E 
|-----------------------|---------------------------| 
|-----------------------|---------------------------| 
|--(7)------------------|--9--9--7---9------------7-| 
|--(7)------------------|--9--9--7---9------------7-| 
|-----------------------|--7--7------7--------------| 
|-(10)------------------|-------10---------------10-| 
| 
|   S  E. Q  S E. S S E   +Q     S S S S S S E E  E 
|--------------3--------|---------------------------| 
|---5--3--3-------------|---------------------------| 
|------------4----2-0---|---------------------------| 
|---------------------2-|-(2)----------0-2-0-2-2--0-| 
|-----------------------|--------0-2-2--------------| 
|-----------------------|---------------------------| 
 
 
   +W 
|----------------------------| 
|----------------------------| 
|--(7)-----------------------| 
|--(7)-----------------------| 
|----------------------------| 
|-(10)-----------------------| 
| 
|  +E  S S +E  E S S E +E  E 
|----------------------------| 
|----------------------------| 
|--------------------0-(0)---| 
|--(0)---------0-------------| 
|------0-2-(2)---0-2---------| 
|--------------------------3-| 
 
 
  E E  E  E Q  E  E    +W                         E E  E E  Q   E  E 
|-------------------|---------------------------|----------------------*| 
|-------------------|---------------------------|----------------------*| 
|-9-9--7--9-------7-|--(7)----------------------|-9-9--7-9---------7---*| 
|-9-9--7--9-------7-|--(7)----------------------|-9-9--7-9---------7---*| 
|-7-7-----7---------|---------------------------|-7-7----7-------------*| 
|-----10---------10-|-(10)----------------------|-----10----------10---*| 
| 
| E E +E  E Q  E  E     S  E. E S S S S S S E E   E E  E E +Q   E  S S 
|-------------------|---------------------------|----------------------*| 
|-----------------3-|------3------3---3---------|----------------------*| 
|---1-(1)-----------|-----------4---4---4-2-0---|------------------0---*| 
|---2-(2)-----------|-------------------------2-|---2--0-2-(2)-------2-*| 
|-------------------|---------------------------|----------------------*| 
|-0-----------------|---------------------------|-0--------------------*| 
 

	  

Full key step upFull key step up
Half key step upHalf key step up
Half key step downHalf key step down
Full key step downFull key step down
Search Paypal
auto scroll beats size up size down change color hide chords drawings
tab show chords e-chords YouTube Clip e-chords hide all tabs e-chords go to top tab