Envy

Last Hours Of Eternity

Envy

tabs

by  ROBEPOIEL

save to print version add songbook text version e-mail correct tuner
chordsukulelecavacokeyboardtabbassdrumsharmonicaflute Guitar Pro
close

there isn't a video lesson for this song

chords

Last Hours Of Eternity

	  		This is my first tab so take it easy if i mess up, corrections welcome! This is an  
amazing song by an amazing band...Enjoy!!! 

Intro (Plays Through The Entire Song) 

E :-----------------|------------------| 
A :-----------------|------------------| 
D :14------14-------|14----------------| 
G :---14---------14-|---13----13----13-| 
B :------12---12----|------12----12----| 
E :-----------------|------------------| 


Tremolo Picks...Comes In After Playing Intro 11x (Listen To The Song For Rythm) 
                                                                     
E :-----------------|------------------|----------------|----------------| 
A :-----------------|------------------|----------------|----------------| 
D :77777777777777777|666666666666666666|1111111111111111|4444444444444444| 
G :-----------------|------------------|----------------|----------------| 
B :-----------------|------------------|----------------|----------------| 
E :-----------------|------------------|----------------|----------------| 

                                            
E :-----------------|------------------|----------------|----------------| 
A :-----------------|------------------|----------------|----------------| 
D :22222222222222222|121212121212121212|1111111111111111|9999999999999999| 
G :-----------------|------------------|----------------|----------------| 
B :-----------------|------------------|----------------|----------------| 
E :-----------------|------------------|----------------|----------------| 

                             
E :-----------------|------------------|----------------|----------------| 
A :-----------------|------------------|----------------|----------------| 
D :22222222222222222|11111111111111111b|----------------|----------------| 
G :-----------------|------------------|6666666666666666|7777>9999999999b| 
B :-----------------|------------------|----------------|----------------| 
E :-----------------|------------------|----------------|----------------| 


E :-----------------|------------------|----------------|----------------| 
A :-----------------|------------------|----------------|----------------| 
D :-----------------|------------------|----------------|----------------| 
G :66666666666666666|77>99>131313131313|9999999999999999|1111111111111111| 
B :-----------------|------------------|----------------|----------------| 
E :-----------------|------------------|----------------|----------------| 


E :-----------------|------------------|----------------|----------------| 
A :-----------------|------------------|----------------|----------------| 
D :-----------------|------------------|----------------|----------------| 
G :99>77>99999999999|---------777777777|6666>44444>22>44|>66666666666666b| 
B :-----------------|10101010----------|----------------|----------------| 
E :-----------------|------------------|----------------|----------------| 


E :-----------------|------------------|----------------|----------------| 
A :-----------------|------------------|----------------|----------------| 
D :-----------------|------------------|----------------|----------------| 
G :66666666666666666|7777>999999999999b|6666666666666666|77>99>1313131313| 
B :-----------------|------------------|----------------|----------------| 
E :-----------------|------------------|----------------|----------------| 


E :-----------------|------------------|----------------|----------------| 
A :-----------------|------------------|----------------|----------------| 
D :-----------------|------------------|----------------|----------------| 
G :99999999999999999|111111111111111111|13131414141414b-|1111111111111111| 
B :-----------------|------------------|----------------|----------------| 
E :-----------------|------------------|----------------|----------------| 


E :-----------------|------------------|----------------|----------------| 
A :-----------------|------------------|----------------|----------------| 
D :-----------------|------------------|----------------|----------------| 
G :1313131313131313>|19191919>18181818>|1414141414141414|16161616>181818>| 
B :-----------------|------------------|----------------|----------------| 
E :-----------------|------------------|----------------|----------------| 


E :-----------------|------------------|----------------|----------------| 
A :-----------------|------------------|----------------|----------------| 
D :-----------------|------------------|----------------|----------------| 
G :1313131313131313>|14141414>16161616>|1111111111111111|1616161616161616| 
B :-----------------|------------------|----------------|----------------| 
E :-----------------|------------------|----------------|----------------| 


E :-----------------|------------------| 
A :-----------------|------------------| 
D :-----------------|14----------------| 
G :1818181818181818-|---13----13----13-| 
B :-----------------|------12----12----| 
E :-----------------|------------------| 


E :-----------------|------------------|----------------|----------------| 
A :1212121212121212>|44444444444444444>|121211111111111>|7777777777777777| 
D :-----------------|------------------|----------------|----------------| 
G :-----------------|------------------|----------------|----------------| 
B :-----------------|------------------|----------------|----------------| 
E :-----------------|------------------|----------------|----------------| 


E :-----------------|------------------|----------------|----------------| 
A :99999999999999999|7777>9999>11111111|99>1111>12121212|44444444444>1212| 
D :-----------------|------------------|----------------|----------------| 
G :-----------------|------------------|----------------|----------------| 
B :-----------------|------------------|----------------|----------------| 
E :-----------------|------------------|----------------|----------------| 


E :-----------------|------------------|----------------|----------------| 
A :1616161616161616>|777777>1616161616>|141414141414>12>|1111111111111111| 
D :-----------------|------------------|----------------|----------------| 
G :-----------------|------------------|----------------|----------------| 
B :-----------------|------------------|----------------|----------------| 
E :-----------------|------------------|----------------|----------------| 


E :-----------------|------------------|----------------|----------------| 
A :9999999999999>111|>121212>4444444444|>1212>111111111>|7777777777777777| 
D :-----------------|------------------|----------------|----------------| 
G :-----------------|------------------|----------------|----------------| 
B :-----------------|------------------|----------------|----------------| 
E :-----------------|------------------|----------------|----------------| 



E :-----------------|------------------|----------------|----------------| 
A :9999999999>77>999|>111111111111>1212|>1414>1616161616|>7777777777>1616| 
D :-----------------|------------------|----------------|----------------| 
G :-----------------|------------------|----------------|----------------| 
B :-----------------|------------------|----------------|----------------| 
E :-----------------|------------------|----------------|----------------| 


E :-----------------|------------------|----------------|----------------| 
A :>1919191919191919|>1515151515151515>|14141414>151515>|1313>1212121212-| 
D :-----------------|------------------|----------------|----------------| 
G :-----------------|------------------|----------------|----------------| 
B :-----------------|------------------|----------------|----------------| 
E :-----------------|------------------|----------------|----------------| 


         x2  
E :----------x---|-----------x-x--|-------x-------| 
A :----------2---|-----------2-2--|-------2-------| 
D :--4---2---4---|--0--4--2--4-4--|-4--2--4--0--2-| 
G :--2---1---4---|--2--2--1--4-4--|-2--1--4--2--2-| 
B :----------3---|--3--2-----3-3--|-------3--3--2-| 
E :--------------|----------------|---------------| 


E :------------|444444--------|222222222222|------------|------------| 
A :000000000000|666666--444444|444444444444|222222222222|------------| 
D :222222222222|666666--666666|444444444444|222222222222|222222222222| 
G :222222222222|--------666666|------------|111111111111|222222222222| 
B :------------|--------------|------------|------------|333333333333| 
E :------------|--------------|------------|------------|------------| 


E :------------|--------------|222222222222| 
A :444444444444|222222-222222-|444444444444| 
D :666666666666|444444-222222-|444444444444| 
G :666666666666|444444-111111-|------------| 
B :------------|--------------|------------| 
E :------------|--------------|------------| 

Back To Tremolo Picks 

E :-----------------|------------------|----------------|----------------| 
A :-----------------|------------------|----------------|----------------| 
D :-----------------|------------------|----------------|----------------| 
G :6666666666666>77>|99999999999999999>|666666666666>77>|99>131313131313>| 
B :-----------------|------------------|----------------|----------------| 
E :-----------------|------------------|----------------|----------------| 



E :-----------------|------------------|----------------|----------------| 
A :-----------------|------------------|----------------|----------------| 
D :-----------------|------------------|----------------|----------------| 
G :9999999999999999>|11111111111111111>|9999>7777>9999>-|---------7777777| 
B :-----------------|------------------|----------------|10101010--------| 
E :-----------------|------------------|----------------|----------------| 


E :-----------------|------------------|----------------|----------------| 
A :-----------------|------------------|----------------|----------------| 
D :-----------------|------------------|----------------|----------------| 
G :6666>44444>22>44>|666666666666666666|6666666666666>77|>999999999999999| 
B :-----------------|------------------|----------------|----------------| 
E :-----------------|------------------|----------------|----------------| 


E :-----------------|------------------|----------------|----------------| 
A :-----------------|------------------|----------------|----------------| 
D :-----------------|------------------|----------------|----------------| 
G :9999999999999999>|66666666666666666>|77>99>1313131313|>9999>1111111111| 
B :-----------------|------------------|----------------|----------------| 
E :-----------------|------------------|----------------|----------------| 


E :-----------------|------------------|----------------|----------------| 
A :-----------------|------------------|----------------|----------------| 
D :-----------------|------------------|----------------|----------------| 
G :1313>141414141414|141414141414141414|11111111>131313>|1919191919>1818>| 
B :-----------------|------------------|----------------|----------------| 
E :-----------------|------------------|----------------|----------------| 


E :-----------------|------------|--------- --|------------|444444-------| 
A :-----------------|666666666666|555555555555|222222222222|666666-444444| 
D :-----------------|888888888888|777777777777|222222222222|666666-666666| 
G :1414141414141414-|888888888888|777777777777|222222222222|555555-666666| 
B :-----------------|------------|------------|------------|-------555555| 
E :-----------------|-------------------------|------------|-------------| 


E :222222222222|------------|------------|------------|-------------| 
A :444444444444|222222222222|------------|444444444444|222222-222222| 
D :444444444444|222222222222|------------|666666666666|444444-222222| 
G :------------|111111111111|222222222222|666666666666|444444-111111| 
B :------------|------------|333333333333|------------|-------------| 
E :------------|------------|222222222222|------------|-------------| 


E :-------222222|------------|------------|------------|------------ | 
A :444444-444444|222222222222|222222222222|------------|-------------| 
D :666666-444444|444444444444|222222222222|------------|-------------| 
G :666666-------|444444444444|111111111111|222222222222|2222222222222| 
B :-------------|------------|------------|333333333333|3333333333333| 
E :-------------|------------|------------|333333333333|3333333333333| 


E :------------|-------| 
A :------------|-------| 
D :------------|2-2-2-2| 
G :222222222222|2-2-2-2| 
B :333333333333|2-2-2-2| 
E :333333333333|-------| 
		  

Full key step upFull key step up
Half key step upHalf key step up
Half key step downHalf key step down
Full key step downFull key step down
auto scroll beats size up size down change color hide chords drawings
tab show chords e-chords YouTube Clip e-chords hide all tabs e-chords go to top tab

share