Enrick Guimar„es

home > Enrick Guimar„es

Improvisado Flamenco Tab

Enrick Guimar„es

Difficulty: nolevelnolevel

by carlluz

tuner correct add songbook print version text version save to e-mail
chordsukulelecavacokeyboardtabbassdrumsharmonicsflute Guitar Pro
chords

Improvisado Flamenco

	  e|---0-------------------------0------| 
b|----1-------------------------1-----| 
g|-----2-------------------------2----| 
d|------2-----2-0-2-2h3-2-0-2-----2---| 
a|-0-----0-------------------------0--| 
e|------------------------------------| 

e|---------------------------------0----------| 
b|----------------------------------1---------| 
g|-----------------------------------2--------| 
d|-2-2-3-3/5-3-2-0--2h3p2p0h2---------2-------| 
a|-------------------------------0-----0------| 
e|--------------------------------------------| 

e|------------------------0-----------| 
b|-----------------------0------------| 
g|----------------------1-------------| 
d|-2-2-2-2h3-2-0-------2--------------| 
a|--------------3-2---2---------------| 
e|-------------------0----------------| 

e|---------------------------------0----------| 
b|----------------------------------1---------| 
g|-----------------------------------2--------| 
d|-2-2-3-3/5-3-2-0--2h3p2p0h2---------2-------| 
a|-------------------------------0-----0------| 
e|--------------------------------------------| 

e|---------------------0--------------| 
b|----------------------0-------------| 
g|-----------------------1------------| 
d|------------------------2-----------| 
a|-2-2-2-2h3-2-0-----------2----------| 
e|--------------4-1-0-------0---------| 

e|---------------------------------------------------------------0-------| 
b|----------------------------------------------------------------0------| 
g|-----------------------------------------------------------------1-----| 
d|------------------------------------------------------------------1----| 
a|-------------------------------------------------------------------2---| 
e|-0-4-0-5-0-7-0-8-0-10-0-12-0-13-0-12-0-10-0-8-0-7-0-5-0-4-1-0-------0--| 

Segunda parte 

e|-12--12-10-12-12h13-12-10-12h13p12h10h12------0------| 
b|---------------------------------------------1-------| 
g|--------------------------------------------2--------| 
d|-------------------------------------------2---------| 
a|------------------------------------------0----------| 
e|-----------------------------------------------------| 

e|-12-12-12-12h13-12-10-8-7------0------------| 
b|------------------------------0-------------| 
g|-----------------------------1--------------| 
d|----------------------------2---------------| 
a|---------------------------2----------------| 
e|--------------------------0-----------------| 

e|-7-7-7-7h8-7-5--7h8p7p5h7-------0------------| 
b|-------------------------------0-------------| 
g|------------------------------1--------------| 
d|-----------------------------2---------------| 
a|----------------------------2----------------| 
e|---------------------------0-----------------| 

e|-7-7-7-7h8-7-5-1-0-----0---------------------| 
b|----------------------1----------------------| 
g|---------------------2-----------------------| 
d|--------------------2------------------------| 
a|-------------------0-------------------------| 
e|---------------------------------------------| 
	  

there isn't a video lesson for this song

request
Search
auto scroll beats size up size down change color hide chords drawings
tab show chords e-chords YouTube Clip e-chords hide all tabs e-chords go to top tab