Enharjarna

Valdtakt

Enharjarna

tabs nolevel nolevel

by  TAMAMOREIRA

save to print version add songbook text version e-mail correct tuner
chordsukulelecavacokeyboardtabbassdrumsharmonicaflute Guitar Pro
close

there isn't a video lesson for this song

chords

Valdtakt

	  		Enhärjarna:Våldtäkt 

Lead: 

E|-------------------------------------------------------------------| 
B|---------------10--8-----------------------------10--8-------------| 
G|-----7--9--10---------10--9--10--9--7--7--9--10---------10--9------| 
D|--7------------------------------------------------------------10--| 
A|-------------------------------------------------------------------| 
E|-------------------------------------------------------------------| 

Verse: 

E|--------------------------------------------------| 
B|--------------------------------------------------| 
G|--2--2--2--2--2--2--2--2--2--2--2--2--2--2--2--2--| 
D|--0--0--0--0--0--0--0--0--0--0--0--0--0--0--0--0--| 
A|--------------------------------------------------| 
E|--------------------------------------------------| 

E|--------------------------------------------------| 
B|--------------------------------------------------| 
G|--5--5--5--5--5--5--5--5--------------------------| 
D|--3--3--3--3--3--3--3--3--5--5--5--5--5--5--5--5--| 
A|--------------------------3--3--3--3--3--3--3--3--| 
E|--------------------------------------------------| 

Chorus: 

E|--------------------------------------------------| 
B|--------------------------------------------------| 
G|--2--2--2--2--2--2--2--2--------------------------| 
D|--0--0--0--0--0--0--0--0--3--3--3--3--3--3--3--3--| 
A|--------------------------1--1--1--1--1--1--1--1--| 
E|--------------------------------------------------| 

E|--------------------------------------------------| 
B|--------------------------------------------------| 
G|--------------------------------------------------| 
D|--5--5--5--5--5--5--5--5--5--5--5--5--5--5--5--5--| 
A|--3--3--3--3--3--3--3--3--3--3--3--3--3--3--3--3--| 
E|--------------------------------------------------| 

E|--------------------------------------------------| 
B|--------------------------------------------------| 
G|--2--2--2--2--2--2--2--2--------------------------| 
D|--0--0--0--0--0--0--0--0--3--3--3--3--3--3--3--3--| 
A|--------------------------1--1--1--1--1--1--1--1--| 
E|--------------------------------------------------| 

E|--------------------------------------------------| 
B|--------------------------------------------------| 
G|--------------------------------------------------| 
D|--------------------------5--5--5--5--5--5--5--5--| 
A|--3--3--3--3--3--3--3--3--3--3--3--3--3--3--3--3--| 
E|--1--1--1--1--1--1--1--1--------------------------| 
		  

See also:

tabs Doa - Sexyest Girl tabs Deep Purple - Smoke on the water (intro) tabs Deep Purple - Highway Star tabs Albert Hammond Jr - Holiday tabs Deep Purple - Deep Purple - Smoke On The Water tabs Deep Purple - Ted The Mechanic
e-chords

Other versions:

tabs Enharjarna - Valdtakt
auto scroll beats size up size down change color hide chords drawings
tab show chords e-chords YouTube Clip e-chords hide all tabs e-chords go to top tab

share with facebook