Engenheiros do Hawaii

Refrão de Bolero (Acústico MTV)

Engenheiros do Hawaii

tabs Expert expert

by  GIGIOPANELLA

save to print version add songbook text version e-mail correct tuner
chordsukulelecavacokeyboardtabbassdrumsharmonicaflute Guitar Pro
close

there isn't a video lesson for this song

chords

Refrão de Bolero (Acústico MTV)

(Humberto Gessinger)

	  		ta ai o solo da música na versão acústica. 
 
E|-------------------|-----------------------------|---------------------| 
B|-------------------|-----------------------------|---------------------|  
G|-------------------|-----------------------------|--------7-9-9-9b^----| 
D|-------------------|----------------------9p7-9--|---7^9---------------| 
A|---------------5---|-----5-7b---7-7-7-7^9--------|---------------------| 
E|-------7-7-7^9---7-|---7-------------------------|---------------------| 
 
 
E|------------------------------------------------|---------------------- 
B|---10-10-10-10-10-10-10-10----------------------|---------------------- 
G|---11-11-11-11-11-11-11-11^9--9-9---9-9-9--7----|---------------------- 
D|------------------------------------------------|---9-7-9---9-8h9-9-9-8 
A|------------------------------------------------|---------------------- 
E|------------------------------------------------|---------------------- 
 
 
E|--------------------|-------------------------------|-----10-12-10-12b- 
B|--------------------|--------------------7-10-10^12-|---12------------- 
G|--------------------|-------------7----9------------|------------------ 
D|--------------------|---------7-9-------------------|------------------ 
A|--9-8-7-------------|-----7^9-----------------------|------------------ 
E|--------------------|---10--------------------------|------------------ 
 
 
E|-12b12b12b12b12b12b12b12b12b12b12p-10-12-10----|---10--10----5-5-7------ 
B|-------------------------------------------12--|-12--12------7-7-7------ 
G|-----------------------------------------------|------------------------ 
D|-----------------------------------------------|------------------------ 
A|-----------------------------------------------|------------------------ 
E|-----------------------------------------------|------------------------ 
 
 
E|--------------------|----------------------------|---------------------- 
B|---5-5---5----------|----------------------------|---------------------- 
G|---7-7---7----------|----------------------------|---------------------- 
D|-------7---7-7-9-9--|----------------------------|---------------------- 
A|--------------------|----------------------------|---------------------- 
E|--------------------|----------------------------|---------------------- 

		  

See also:

tabs Barão Vermelho - O Tempo Não Pára tabs Engenheiros do Hawaii - Infinita Highway tabs Nando Reis - Por onde andei tabs Legião Urbana - Vento no Litoral tabs Paralamas do Sucesso - Alagados tabs Legião Urbana - Pais e Filhos
e-chords

Other versions:

tabs Engenheiros do Hawaii - Refrão de Bolero tabs Engenheiros do Hawaii - Refrão de Bolero (Acústico MTV)
auto scroll beats size up size down change color hide chords drawings
tab show chords e-chords YouTube Clip e-chords hide all tabs e-chords go to top tab

share