Enchant

The Thirst

Enchant

tabs

save to print version add songbook text version e-mail correct tuner
chordsukulelecavacokeyboardtabbassdrumsharmonicaflute Guitar Pro
close

there isn't a video lesson for this song

chords

The Thirst

	  		 
Intro 
|-----------------------------------12--------- 
|------------------9----12----14--------------- 
|-8----11-------------------------------------- 
|------------11-------------------------------- 
|---------------------------------------------- 
|---------------------------------------------- X4 
Riff 1  - X2 
 Fm                      G# 
|-10----11----10-------|-10----11----10-------| 
|----11----11----11----|----11----11----11----| 
|-------------------10-|-------------------10-| 
|----------------------|----------------------| 
|----------------------|----------------------| 
|----------------------|----------------------| 
 
 Eb                      Bb 
|-10----11----10-------|-10----11----13-11-10-| 
|----11----11----11----|----11----11----------| 
|-------------------10-|----------------------| 
|----------------------|----------------------| 
|----------------------|----------------------| 
|----------------------|----------------------| 
 
 G#                      Eb 
|-10----11----10-------|-10----11----10-------| 
|----11----11----11----|----11----11----11----| 
|-------------------10-|-------------------10-| 
|----------------------|----------------------| 
|----------------------|----------------------| 
|----------------------|----------------------| 
 C# 
|-8---9---8------|--8---9---8------| 
|---9---9---9----|----9---9---9----| 
|-------------8--|--------------8--| 
|----------------|-----------------| 
|----------------|-----------------| 
|----------------|-----------------| 
 
Riff 2 - X2 
 
|----------------|-----------------| 
|----------------|-----------------| 
|----------------|-----------------| 
|----------------|-----------------| 
|-3------------1-|-3-------------1-| 
|----------------|-----------------| 
 
|----------------|-----------------| 
|----------------|-----------------| 
|----------------|-----------------| 
|----------------|-----------------| 
|-1--------------|-----------------| 
|--------------3-|-4-------------3-| 
 
|----------------| 
|----------------| 
|----------------| 
|----------------| 
|----------------| 
|-4--------------| 
 
Parte 3 
 
C9  Eb9  Bb  Cm  Eb9  Bb  -> 
 
final da parte 3  
 G# 
|---------------------| 
|-4----4----3---------| 
|-5----5----5-----/---| 
|-6----6----6---------| 
|---------------------| 
|-4-------------------| 
 
Refrão(base) + riff 1 
 
Riff 2  - X2 
      pm-------------         pm-------------- 
|------------------------|------------------------| 
|------------------------|------------------------| 
|------------------------|------------------------| 
|------------------------|------------------------| 
|-3---3-3-3-3-3-3-3-3--1-|-3---3-3-3-3-3-3-3-3--1-| 
|------------------------|------------------------| 
 
|------------------------|-------------------| 
|------------------------|-------------------| 
|------------------------|-------------------| 
|------------------------|-------------------| 
|-1---1-1-1-1-1-1-1-1----|-------------------| 
|----------------------3-|-4---4---4-------3-| 
 
|------------------| 
|------------------| 
|------------------| 
|------------------| 
|------------------| 
|-4---4---4------1-| 
 
Parte 3 -  x 2 
 
C9  Eb9  Bb  Cm  Eb9  Bb  -> 
 
final da parte 3  
 G# 
|---------------------| 
|-4----4----3---------| 
|-5----5----5-----/---| 
|-6----6----6---------| 
|---------------------| 
|-4-------------------| 
 
Refrão(base) 
 
Outro x 2 : 
 
|------------------| 
|-11---9---8-------| 
|-8----8---8---x-x-| 
|-8----8---8---x-x-| 
|------------------| 
|------------------| X 2 
 
|------------------| 
|------------------| 
|------------------| 
|------------------| 
|-8-8-8-8-8-8-8-8-8| 
|------------------| X2 
 
------> 
|---------------------------------| 
|---------------------------------| 
|---------------------------------| 
|-5---5---5--3--5---5---5--5--3-3-| 
|-3---3---3--1--3---3---3--3--1-1-| 
|---------------------------------| 
 
Solo 
                                
|------------11p10------------------------------------------------- 
|-----/10~---------/10~~--8h9h11----------------------------------- 
|-7h8----------------------------8~~~-7h8h10----------------------- 
|---------------------------------\/----------8~~--6~--8-/10-8\6 8- 
|----------------------------------------------\/------------------ 
|------------------------------------------------------------------ 
                                  
-----------------------------------------11~---13--15--16--13--15-- 
-------------------------------------8h9--------------------------- 
----------------------6h8/10-8\6-8~~~------------------------------ 
-5-5h6p5------------6-------------\-------------------------------- 
---------8-4~~--4-8----------------\------------------------------- 
------------------------------------------------------------------- 
 
------------18-/20--p18p16-18p16-------------------------------------- 
-16~~-15h16-----------------------20--18h20p18-16h18p16-15h16h18------ 
----\------------------------------------------------------------15--- 
-------------------------------------------------------------------\/- 
---------------------------------------------------------------------- 
---------------------------------------------------------------------- 
 
--------------------------------15-16-18-16-15------------------------- 
-15h16h18--------------15-16-18----------------18-16-15---------------- 
----------15--13-15-17----------------------------------17-15b-p-13---- 
--------------------------------------------------------------------14- 
----------------------------------------------------------------------- 
----------------------------------------------------------------------- 
 
-----/14~~----14p13----------------------------------------------------- 
----------\/--------14-------------------------------------------------- 
-----------------------13~---11p10h11/13-11\10-------------------------- 
-----------------------------------------------11----------------------- 
--------------------------------------------------11--8h9h11------------ 
-------------------------------------------------------------9~~-------- 
 
---------------------------------------------------12-14-16-17b19------- 
---------------------------------------------12h14---------------------- 
-------------------------------------9h11/13---------------------------- 
------------9h11/13-11\9-11~~------9------------------------------------ 
----------9-------------------7-11-------------------------------------- 
-7~~-7-11--------------------------------------------------------------- 
 
-18-18h19p18p16-----------------------19-18-16------------------------ 
----------------19b-16-19~------16h17----------19-17-16--------------- 
---------------------------18b--------------------------18-16--------- 
--------------------------------------------------------------18-16--- 
---------------------------------------------------------------------- 
---------------------------------------------------------------------- 
 
----------------------------------------------------------------------- 
----------------------------------------------------------------------- 
--------------------------------------16h18/20-18\16-18----15~~~------- 
-----------------------------------16---------------------------------- 
-18-16-14--14h16h18-----14~~-14-18------------------------------------- 
--------------------14~------------------------------------------------ 
 
-------------------16-17-19-21--21b------------------------------------ 
----------16-17-19----------------------------------------------------- 
-15-16-18-------------------------------------------------------------- 
----------------------------------------------------------------------- 
----------------------------------------------------------------------- 
----------------------------------------------------------------------- 
 
Refrão riff 1 - X1 
 
Refrão(base) + riff 1 
 
 
Parte 3 -  x 2 
 
C9  Eb9  Bb  Cm  Eb9  Bb  -> 
 
Primeiro final da parte 3  
 G# 
|--------------------------------| 
|-4----4----3----4p3---4p3-------| 
|-5----5----5--------5-----5~----| 
|-6----6----6--------------------| 
|--------------------------------| 
|-4------------------------------| 
 
segundo final da parte 3  
 G# 
|---------------------| 
|-4----4----3---------| 
|-5----5----5-----/---| 
|-6----6----6---------| 
|---------------------| 
|-4-------------------| x2 
 
Outro x 2 : 
 
|------------------| 
|-11---9---8-------| 
|-8----8---8---x-x-| 
|-8----8---8---x-x-| 
|------------------| 
|------------------| X 2 
 
|------------------| 
|------------------| 
|------------------| 
|------------------| 
|-8-8-8-8-8-8-8-8-8| 
|------------------| X2 
 
 
----> 
Fim... 
|-11--11--11--11--| 
|-11--11--11--11--| 
|-----------------| 
|-----------------| 
|-----------------| 
|-----------------| 
 
 
_______________________________________________________ 
Contribuição: Gabriel Lucas([email protected]) 

		  

Full key step upFull key step up
Half key step upHalf key step up
Half key step downHalf key step down
Full key step downFull key step down
auto scroll beats size up size down change color hide chords drawings
tab show chords e-chords YouTube Clip e-chords hide all tabs e-chords go to top tab

share