En Espiritu Y En Verdad

Resplandeció

En Espiritu Y En Verdad

tabs

by  MISSIONAR

save to print version add songbook text version e-mail correct tuner
chordsukulelecavacokeyboardtabbassdrumsharmonicaflute Guitar Pro
close

there isn't a video lesson for this song

chords

Resplandeció

	  		INTRODUCCIÓN:             h:hammer s:slide 
//G#m-E-F#// 

VERSO1: 

   G#m           E           F# 
//Vienes como el sol al amanecer 
G#m           E             F# 
Tinieblas huirán ante tu poder 
          G#m      B           F# 
e |------7-9s11----7-9s11-----6-7s9--| 
B |-----9---------9----------9-------| 
G |----------------------------------| 
Como el alba se levanta de la oscuridad 
                 E         B               F# 
e |-------------7-9s11----7-9s11-----------6-7s9--| 
B |------------9---------9----------------9-------| 
G |-----------------------------------------------| 
Tu vienes desde Sion a salvar Tú no te tardarás // 
(AQUÍ HACE LO MISMO QUE ANTES Y DESPUÉS VA AL CORO) 
                 E         B                 F# 
Tu vienes desde Sion a salvar Tú no te tardarás 

Coro: 
G#m       E              B 
Resplandeció, Resplandeció 
            F#           G#m 
El pueblo esclavo vio la luz 
         E           B 
Nos libertó nos libertó 
            F# 
Nuestra victoria fue la cruz 

INTRUMENTAL: 
    G#m        E       F#           G#m        E       F# 
e |---------------------------------------------------------------------| 
B |---------------------------------------------------------------------| 
G |--6h8--6h8-6--6h8-6---------4(4)-6h8--6h8-6--6h8---------4(4)-4h6-4--| 
D |-----6------6------4(4)-6(4)--------6------6----4(4)-6(4)----------6-| 
A |---------------------------------------------------------------------| 
E |---------------------------------------------------------------------| 

VERSO2: 
 G#m          E            F# 
Nada que no fuera de tu autoridad 
G#m        E              F# 
  Eres imparable quien te detendrá 
       G#m      B          F# 
e |--7-9s11----7-9s11-----6-7s9--| 
B |-9---------9----------9-------| 
G |------------------------------| 
  Mi esperanza es la vida 
      E         B          F# 
e |--7-9s11----7-9s11-----6-7s9--| 
B |-9---------9----------9-------| 
G |------------------------------| 
 Que está bajo tu pies 

                 E         B               F# 
e |-------------7-9s11----7-9s11-----------6-7s9--| 
B |------------9---------9----------------9-------| 
G |-----------------------------------------------| 
//Tu vienes desde Sion a salvar Tú no te tardaras// 

CORO 
  G#m       E              B 
//Resplandeció, Resplandeció 
            F#           G#m 
El pueblo esclavo vio la luz 
         E           B 
Nos libertó nos libertó 
            F# 
Nuestra victoria fue la cruz// 
Instrumental: 
//E B F#// 
(HACE LO MISMO QUE EN EL ANTERIOR Instrumental) 
         E   B     F#         E          B      F# 
//// Aleluya libre soy Sea la gloria al que venció //// X4 

  G#m       E              B 
//Resplandeció, Resplandeció 
            F#           G#m 
El pueblo esclavo vio la luz 
         E           B            F# 
Nos liberto nos liberto Nuestra victoria fue la cruz // 
      E   B     F#         E          B      F# 
// Aleluya libre soy Sea la gloria al que venció // 
		  

Full key step upFull key step up
Half key step upHalf key step up
Half key step downHalf key step down
Full key step downFull key step down
auto scroll beats size up size down change color hide chords drawings
tab show chords e-chords YouTube Clip e-chords hide all tabs e-chords go to top tab

share