Emily's Army

home > Emily's Army

Loch Lomond Tab

Emily's Army

Difficulty: nolevelnolevel

by IronPower4Ever

tuner correct add songbook print version text version save to e-mail
chordsukulelecavacokeyboardtabbassdrumsharmonicsflute Guitar Pro
chords

Loch Lomond

  		
Intro: 

Guitar 1: 

e|------------------------------------------------------------------------| 
B|------------------------------------------------------------------------| 
G|-------------------------------------------------------------------77---| 
D|----------77777777-55555555------7777-99999999-55555555-55555555---77-5-| 
A|-55555555 55555555-33333333-5555-5555-77777777-33333333-33333333---55-5-| 
E|-33333333-------------------3333--------------------------------------3-| 
   ........ ........ ........ .... .... ........ ........ ........ 

Guitar 2: No sound 

RIFF 1 : 

Guitar 1 

e|-------------------------------------------------------------------------| 
B|-------------------------------------------------------------------------| 
G|-------------------------------------------------------------------------| 
D|----------------------------------5---------5----------------------------| 
A|--------2------------------2-5-5/7--7-5--5-7---7-5--5-7-5--0-2-----------| 
E|--3-3-5---5-3-5--5-3-0--3-3------------------------------------3---------| 

e|-------------------------------------------------------------------------| 
B|-------------------------------------------------------------------------| 
G|-------------------------------------------------------------------------| 
D|-------------------------------------------------------------------------| 
A|----5-----5--------------------------------------------------------------| 
E|--3---3-3---3-5-5-3------------------------------------------------------| 

Guitar 2: 

e|------------------------------------------------------------------------| 
B|------------------------------------------------------------------------| 
G|----------555-555----------555-777-999-999-555-555--555-555-77----------| 
D|-555-555--555-555--555-555-555-777-999-999-555-555--555-555-77-5--------| 
A|-555-555--333-333--555-555-333-555-777-777-333-333--333-333-55-5--------| 
E|-333-333-----------333-333-------------------------------------3--------| 
    
verse 1 : 

Both guitars 

e|------------------------------------------------------------------------| 
B|------------------------------------------------------------------------| 
G|------7---5------7---9---5---5---77-------------------------------------| 
D|--5---7---5---5--7---9---5---5---77--5----------------------------------| 
A|--5---5---3---5--5---7---3---3---55--5----------------------------------| 
E|--3-----------3----------------------3----------------------------------| 

RIFF 2 : 

e|-------------------------------------------------------------------------| 
B|-------------------------------------------------------------------------| 
G|-------------------------------------------------------------------------| 
D|----------------------------------5---------5----------------------------| 
A|--------2------------------2-5-5/7--7-5--5-7---7-5--5-7-5--0-2-----------| 
E|--3-3-5---5-3-5--5-3-0--3-3------------------------------------3---------| 

e|-------------------------------------------------------------------------| 
B|-------------------------------------------------------------------------| 
G|-------------------------------------------------------------------------| 
D|-------------------------------------------------------------------------| 
A|----5-----5--------------------------------------------------------------| 
E|--3---3-3---3-5-5-3------------------------------------------------------| 
	  

Search Paypal
auto scroll beats size up size down change color hide chords drawings
tab show chords e-chords YouTube Clip e-chords hide all tabs e-chords go to top tab