Emiliana Torrini

Ha-ha

Emiliana Torrini

tabs

by  VICTBORGES

save to print version add songbook text version e-mail correct tuner
chordsukulelecavacokeyboardtabbassdrumsharmonicaflute Guitar Pro
close

there isn't a video lesson for this song

chords

Ha-ha

Key:  Am More
Ha-ha Key EmEm
Ha-ha Key FmFm
Ha-ha Key F#mF#m
Ha-ha Key GmGm(one step down)
Ha-ha Key G#mG#m(half step down)
Ha-ha Key AmAm(original key)
Ha-ha Key A#mA#m(half step up)
Ha-ha Key BmBm(one step up)
Ha-ha Key CmCm
Ha-ha Key C#mC#m
Ha-ha Key DmDm
Ha-ha Key D#mD#m
	  		Ha Ha ? Emiliana Torrini 
Guitar Tabs 

Tabs: P.S.  

      Am            C             B                 E 

     Anger     steaming up your  glasses          You?ve been holding  
    pa - rties       all            your		life  

E--------------------------------------------------------------------------- 
B--------------------------------------------------------------------------- 
G---------2---2---------5----5---------4------4-------2--2------2----------- 
D---------2---2---------5----5---------4------4-------1--1------1----------- 
A----0-0-----0----3--3-----3-----2--2-------2------------------------------- 
E-------------------------------------------------0-0-------0--------------- 


      Am            C             B                 E 

     Parties 	  all	        your 		life 

E--------------------------------------------------------------------------- 
B--------------------------------------------------------------------------- 
G---------2---2---------5----5---------4------4-------2--2------2----------- 
D---------2---2---------5----5---------4------4-------1--1------1----------- 
A----0-0-----0----3--3-----3-----2--2-------2------------------------------- 
E-------------------------------------------------0-0-------0--------------- 

      Am              C           	 B               E 

     ?Cause it?s    long gone down,   You?re still hanging around 
     It?s not       o-ver            ?till it starts again 

E-------------------------------------|--------------------------------------- 
B-------------------------------------|--------------------------------------- 
G-------------------------5-----5-----|--------4-----4--------2--2------2----- 
D---------7---7-----------5-----5-----|--------4-----4--------1--1------1----- 
A---------7---7-----3--3-----3--------|---2--2-----2-------------------------- 
E----5-5----5-------------------------|--------------------0-0--------0------- 

Chorus 

      Dm            C             Am                 E 

      Ha-	  ha-	        ha. 		Hear me laughing 

E--------------------------------------------------------------------------- 
B--------------------------------------------------------------------------- 
G---------7---7---------5----5---------2------2-------2--2------2----------- 
D---------7---7---------5----5---------2------2-------1--1------1----------- 
A----5-5-----5----3--3-----3-----0--0-------0------------------------------- 
E-------------------------------------------------0-0-------0--------------- 

      Dm            C             Am                 G 

      Ha-	  ha-	        ha. 		Ha- ha- ha. 

E--------------------------------------------------------------------------- 
B--------------------------------------------------------------------------- 
G---------7---7---------5----5---------2------2-------5--5-----5------------ 
D---------7---7---------5----5---------2------2-------5--5-----5------------ 
A----5-5-----5----3--3-----3-----0--0-------0------------------------------- 
E-------------------------------------------------3-3-------3--------------- 
		  

Full key step upFull key step up
Half key step upHalf key step up
Half key step downHalf key step down
Full key step downFull key step down
hide glossary

See also:

tabs Black Eyed Peas - Pump it (solo) tabs Maroon 5 - She will be loved (intro) tabs Michael Jackson - Billie Jean ( ver. 2 ) tabs Gavin Degraw - Follow Through tabs Yellowcard - Only One tabs Black Eyed Peas - Pump it intro
e-chords

Other versions:

tabs The Julie Ruin - Ha Ha Ha tabs Green Day - Ha Ha You're Dead (solo) tabs Emiliana Torrini - Ha-ha
auto scroll beats size up size down change color hide chords drawings
tab show chords e-chords YouTube Clip e-chords hide all tabs e-chords go to top tab

share