Emery

In Shallow Seas We Sail

Emery

tabs

by  ROBEPOIEL

save to print version add songbook text version e-mail correct tuner
chordsukulelecavacokeyboardtabbassdrumsharmonicaflute Guitar Pro
close

there isn't a video lesson for this song

chords

In Shallow Seas We Sail

	  		


Tabbed by: Donovan F. 
E-mail:  

Tuning: 
  I've got eyes in the...      
eb|-x-------------------| 
Bb|-x-------------------| 
Gb|-8-------------------| 
Db|-7-------------------| 
Ab|-8-------------------| 
Db|-x-------------------| 

Back of my head and I... 
eb|-x-------------------| 
Bb|-2-------------------| 
Gb|-2-------------------| 
Db|-2-------------------| 
Ab|-0-------------------| 
Db|-x-------------------| 
   
  See where you're going with this... 
eb|--x-------------------| 
Bb|--3-------------------| 
Gb|--4-------------------| 
Db|--4-------------------| 
Ab|--2-------------------| 
Db|--x-------------------| 

  I'm not surprised... 
eb|-x-------------------| 
Bb|-x-------------------| 
Gb|-x-------------------| 
Db|-6-------------------| 
Ab|-4-------------------| 
Db|-3-------------------| 

  You Take me for a fool... 
eb|-x-------------------| 
Bb|-x-------------------| 
Gb|-8-------------------| 
Db|-7-------------------| 
Ab|-8-------------------| 
Db|-x-------------------| 

  And maybe you're right... 
eb|-x-------------------| 
Bb|-2-------------------| 
Gb|-2-------------------| 
Db|-2-------------------| 
Ab|-0-------------------| 
Db|-x-------------------| 

  If I was wiser I would not have let my... 
eb|--x-------------------| 
Bb|--3-------------------| 
Gb|--4-------------------| 
Db|--4-------------------| 
Ab|--2-------------------| 
Db|--x-------------------| 

  Self come here tonight... 
eb|-x-------------------| 
Bb|-x-------------------| 
Gb|-x-------------------| 
Db|-6-------------------| 
Ab|-4-------------------| 
Db|-3-------------------| 

  You sold yourself, you never learn.. 
eb|-2-------------------| 
Bb|-3-------------------| 
Gb|-2-------------------| 
Db|-0-------------------| 
Ab|-0-------------------| 
Db|-x-------------------| 

  Here I am watching the.. 
eb|-x-------------------| 
Bb|-3-------------------| 
Gb|-4-------------------| 
Db|-4-------------------| 
Ab|-2-------------------| 
Db|-x-------------------|  

  Summer...  
eb|-x-------------------| 
Bb|-x-------------------| 
Gb|-x-------------------| 
Db|-7-------------------| 
Ab|-4-------------------| 
Db|-4-------------------| 

  Fading... 
eb|-x-------------------| 
Bb|-2-------------------| 
Gb|-2-------------------| 
Db|-2-------------------| 
Ab|-0-------------------| 
Db|-x-------------------| 
  
 Your hands were warm on my face.. 
eb|-2-------------------| 
Bb|-3-------------------| 
Gb|-2-------------------| 
Db|-0-------------------| 
Ab|-0-------------------| 
Db|-x-------------------| 

  Now they're cold, pushing away... 
eb|-x-------------------| 
Bb|-3-------------------| 
Gb|-4-------------------| 
Db|-4-------------------| 
Ab|-2-------------------| 
Db|-x-------------------|  
  
 Slowly... 
eb|-x-------------------| 
Bb|-x-------------------| 
Gb|-x-------------------| 
Db|-7-------------------| 
Ab|-4-------------------| 
Db|-4-------------------| 

 Aaaaa... 
eb|---------------------| 
Bb|---------------------| 
Gb|---=-----------------| 
Db|-6-------------------| 
Ab|-2-------------------| 
Db|-2-------------------| 
   
 ...way 
eb|-x-------------------| 
Bb|-3-------------------| 
Gb|-4-------------------| 
Db|-4-------------------| 
Ab|-2-------------------| 
Db|-x-------------------|  
  
 Pushing me away.. 
eb|-x-------------------| 
Bb|-x-------------------| 
Gb|-x-------------------| 
Db|-6-------------------| 
Ab|-4-------------------| 
Db|-3-------------------| 

  I knew it right from the start          **this verse has the same exact chords as 
  I've got this big big hole in my heart    the first 
  I wanted to put you in 
  But for some reason 

  you just wouldn't fit 
eb|-x-------------------| 
Bb|-3-------------------| 
Gb|-4-------------------| 
Db|-4-------------------| 
Ab|-2-------------------| 
Db|-x-------------------| 
   
you just wouldn't fit 
eb|-x-------------------| 
Bb|-x-------------------| 
Gb|-x-------------------| 
Db|-6-------------------| 
Ab|-4-------------------| 
Db|-3-------------------| 
  
  You sold yourself, you never learn 
  Here I am watching the summer fading 
  Your hands were warm, on my face 
  now their cold pushing away 
  slowly away 
   
  Pushing me away 
eb|-x-------------------| 
Bb|-x-------------------| 
Gb|-x-------------------| 
Db|-5-------------------| 
Ab|-5-------------------| 
Db|-5-------------------| 
  Pushing me away 
eb|----------------------------------------| 
Bb|----------------------------------------| 
Gb|----------------------------------------| 
Db|---2p-2p-------2p--2p----2p-2p-----2p-2p| 
Ab|-0--------0-----------------------------| 
Db|-----------------------3--------3-------| 
  
  Lust can give a man so many regrets 
eb|-x-------------------| 
Bb|-2-------------------| 
Gb|-2-------------------| 
Db|-2-------------------| 
Ab|-0-------------------| 
Db|-x-------------------| 

eb|----------------------------------------| 
Bb|----------------------------------------| 
Gb|----------------------------------------| 
Db|---2p-2p-------2p--2p----2p-2p-----2p-2p| 
Ab|-0--------0-----------------------------| 
Db|-----------------------3--------3-------| 
   
Just this once is... 
eb|-x-------------------| 
Bb|-2-------------------| 
Gb|-2-------------------| 
Db|-2-------------------| 
Ab|-0-------------------| 
Db|-x-------------------| 
  
  what we tell ourselves 
eb|-x-------------------| 
Bb|-x-------------------| 
Gb|-x-------------------| 
Db|-5-------------------| 
Ab|-5-------------------| 
Db|-5-------------------| 

  oh oh oh oh 
eb|-x-------------------| 
Bb|-x-------------------| 
Gb|-x-------------------| 
Db|-7-------------------| 
Ab|-4-------------------| 
Db|-4-------------------| 

eb|-x-------------------| 
Bb|-3-------------------| 
Gb|-4-------------------| 
Db|-4-------------------| 
Ab|-2-------------------| 
Db|-x-------------------| 

eb|-x-------------------| 
Bb|-x-------------------| 
Gb|-x-------------------| 
Db|-6-------------------| 
Ab|-4-------------------| 
Db|-3-------------------| 
  
  Ships dont sink 
eb|-x-------------------| 
Bb|-x-------------------| 
Gb|-x-------------------| 
Db|-7-------------------| 
Ab|-4-------------------| 
Db|-4-------------------| 

  If they have wind in their sails 
eb|-x-------------------| 
Bb|-3-------------------| 
Gb|-4-------------------| 
Db|-4-------------------| 
Ab|-2-------------------| 
Db|-x-------------------| 

  But if the wind fails is there 
eb|-x-------------------| 
Bb|-x-------------------| 
Gb|-x-------------------| 
Db|-6-------------------| 
Ab|-4-------------------| 
Db|-3-------------------| 

  Hope 
eb|-x-------------------| 
Bb|-x-------------------| 
Gb|-x-------------------| 
Db|-7-------------------| 
Ab|-4-------------------| 
Db|-4-------------------| 

  For 
eb|-x-------------------| 
Bb|-x-------------------| 
Gb|-x-------------------| 
Db|-2-------------------| 
Ab|-2-------------------| 
Db|-2-------------------| 

  Me 
eb|-x-------------------| 
Bb|-x-------------------| 
Gb|-x-------------------| 
Db|-4-------------------| 
Ab|-0-------------------| 
Db|-0-------------------| 
   
  I guess your love was only as safe 
eb|-x-------------------| 
Bb|-3-------------------| 
Gb|-4-------------------| 
Db|-4-------------------| 
Ab|-2-------------------| 
Db|-x-------------------| 

  As the promise you made 
eb|-x-------------------| 
Bb|-x-------------------| 
Gb|-6-------------------| 
Db|-6-------------------| 
Ab|-4-------------------| 
Db|-x-------------------| 

  Now I am drowning in 
eb|-2-------------------| 
Bb|-3-------------------| 
Gb|-2-------------------| 
Db|-0-------------------| 
Ab|-0-------------------| 
Db|-x-------------------| 

  Your shallow sea I swear 
eb|-x-------------------| 
Bb|-3-------------------| 
Gb|-4-------------------| 
Db|-4-------------------| 
Ab|-2-------------------| 
Db|-x-------------------| 

  You are the waves that 
eb|-x-------------------| 
Bb|-x-------------------| 
Gb|-x-------------------| 
Db|-7-------------------| 
Ab|-4-------------------| 
Db|-4-------------------| 

  Toss me aaa.. 
eb|-x-------------------| 
Bb|-x-------------------| 
Gb|-x-------------------| 
Db|-2-------------------| 
Ab|-2-------------------| 
Db|-2-------------------| 

  ...way 
eb|-2-------------------| 
Bb|-3-------------------| 
Gb|-2-------------------| 
Db|-0-------------------| 
Ab|-0-------------------| 
Db|-x-------------------| 
  
 How can I float above water that fills my lungs     **song ends with the same chords.  
 killing me softly without a word 
  
  
  

************************************ 

| /   slide up 
| \   slide down 
| h   hammer-on 
| p   pull-off 
| ~   vibrato 
| +   harmonic 
| x   Mute note 
| b   Bend 
| pb  Pre-bend 
| br  Bend release 
| pbr Pre-bend release 
| brb Bend release bend 

************************************ 
		  

See also:

tabs Bloodgood - Out of the darkness tabs Hillsong - One way tabs Hillsong - What the world will never take tabs Planetshakers - Fall in this place tabs 12-Stones - Broken (intro) tabs 12-Stones - Let go
e-chords

Other versions:

tabs Emery - In Shallow Seas We Sail
auto scroll beats size up size down change color hide chords drawings
tab show chords e-chords YouTube Clip e-chords hide all tabs e-chords go to top tab

share