Elton John

Saturday Night`s Alright for Fighting Tab

Elton John

Difficulty: nolevelnolevel

by europeu

tuner correct add songbook print version text version save to e-mail
chordsukuleleukulelecavacokeyboardtabbassdrumsharmonicsflute Guitar Pro
close

there isn't a video lesson for this song

request
chords

Saturday Night`s Alright for Fighting

  		INTRO: 

e|-----------------------------------------------------------------------= ---| 
B|-----------------------------------------------------------------------= ---| 
G|--5--5--5---5--5--5---5--5--5---3--3--3---3/15---10--10--10---10--10--1= 0--| 
D|--7--7--5---7--7--5---7--7--5---5--5--3---3/15---12--12--10---12--12--1= 0--| 
A|-----------------------------------------------------------------------= ---| 
E|-----------------------------------------------------------------------= ---| 


e|-----------------------------------------------------------------------= ---| 
B|-----------------------------------------------------------------------= ---| 
G|--5--5--5---5--5--5---5--5--5---3--3--3--3--3--------------------------= ---| 
D|--7--7--5---7--7--5---7--7--5---5--5--3--3--5---3----3--3---3--3--3----= ---| 
A|------------------------------------------------3h5--5--3---5--5--3----= ---| 
E|-----------------------------------------------------------------------= ---| 

First Verse: 



G                       F, C, G, G, F, C, G, F. 
It's gettin' late. 



Chorus: 



C                       Bb, F, C, C, Bb, F, C, G,. 
So don't give us. 
 Bb                C       
Oooh, oooh, oooh, oooh... 




BRIDGE:    G-G-G! F-F G-G! F-F G! 




Second Verse: 



G                       F, C, G, G, F, C, G, F. 
Well they're packed. 


Repeat Chorus: 


LEAD BREAK: 

    C                            
e---------------------------------| 
B---------------------------------| 
G---5--5--5---5--5--5---5--5--5---| 
D---7--7--5---7--7--5---7--7--5---| 
A---------------------------------| 
E---------------------------------| 

    Bb 
e---------------------------------| 
B---------------------------------| 
G---3--3--3---3--3--3---3--3--3---| 
D---5--5--3---5--5--3---5--5--3---| 
A---------------------------------| 
E---------------------------------| 

    F 
e------------------------------------------| 
B------------------------------------------| 
G---10--10--10---10--10--10---10--10--10---| 
D---12--12--10---12--12--10---12--12--10---| 
A------------------------------------------| 
E------------------------------------------| 

    C                            
e---------------------------------| 
B---------------------------------| 
G---5--5--5---5--5--5---5--5--5---| 
D---7--7--5---7--7--5---7--7--5---| 
A---------------------------------| 
E---------------------------------| 

    C                            
e---------------------------------| 
B---------------------------------| 
G---5--5--5---5--5--5---5--5--5---| 
D---7--7--5---7--7--5---7--7--5---| 
A---------------------------------| 
E---------------------------------| 

    Bb 
e---------------------------------| 
B---------------------------------| 
G---3--3--3---3--3--3---3--3--3---| 
D---5--5--3---5--5--3---5--5--3---| 
A---------------------------------| 
E---------------------------------| 

    F 
e------------------------------------------| 
B------------------------------------------| 
G---10--10--10---10--10--10---10--10--10---| 
D---12--12--10---12--12--10---12--12--10---| 
A------------------------------------------| 
E------------------------------------------| 












    C                             F/C 
e---------------------------------1---| 
B---------------------------------1---| 
G---5--5--5---5--5--5---5--5--5---2---| 
D---7--7--5---7--7--5---7--7--5---3---| 
A---------------------------------3---| 
E---------------------------------X---| 
                              
                                  ...oooh!... 

Repeat Chorus: 


OUTRO: 

    C                            
e---------------------------------| 
B---------------------------------| 
G---5--5--5---5--5--5---5--5--5---| 
D---7--7--5---7--7--5---7--7--5---| 
A---------------------------------| 
E---------------------------------| 

    Bb 
e---------------------------------| 
B---------------------------------| 
G---3--3--3---3--3--3---3--3--3---| 
D---5--5--3---5--5--3---5--5--3---| 
A---------------------------------| 
E---------------------------------| 

    F 
e------------------------------------------| 
B------------------------------------------| 
G---10--10--10---10--10--10---10--10--10---| 
D---12--12--10---12--12--10---12--12--10---| 
A------------------------------------------| 
E------------------------------------------| 

    C                            
e---------------------------------| 
B---------------------------------| 
G---5--5--5---5--5--5---5--5--5---| 
D---7--7--5---7--7--5---7--7--5---| 
A---------------------------------| 
E---------------------------------| 

    C 
e---------------------------------| 
B---------------------------------| 
G---5--5--5---5--5--5---5--5--5---| 
D---7--7--5---7--7--5---7--7--5---| 
A---------------------------------| 
E---------------------------------| 
    Saturday, Saturday, Saturday, 

    Bb 
e---------------------------------| 
B---------------------------------| 
G---3--3--3---3--3--3---3--3--3---| 
D---5--5--3---5--5--3---5--5--3---| 
A---------------------------------| 
E---------------------------------| 
    Saturday, Saturday, Saturday, 

    F 
e------------------------------------------| 
B------------------------------------------| 
G---10--10--10---10--10--10---10--10--10---| 
D---12--12--10---12--12--10---12--12--10---| 
A------------------------------------------| 
E------------------------------------------| 
    Saturday,    Saturday,    Saturday night's alright! 

    C                            
e---------------------------------| 
B---------------------------------| 
G---5--5--5---5--5--5---5--5--5---| 
D---7--7--5---7--7--5---7--7--5---| 
A---------------------------------| 
E---------------------------------| 

    C 
e---------------------------------| 
B---------------------------------| 
G---5--5--5---5--5--5---5--5--5---| 
D---7--7--5---7--7--5---7--7--5---| 
A---------------------------------| 
E---------------------------------| 
    Saturday, Saturday, Saturday, 

    Bb 
e---------------------------------| 
B---------------------------------| 
G---3--3--3---3--3--3---3--3--3---| 
D---5--5--3---5--5--3---5--5--3---| 
A---------------------------------| 
E---------------------------------| 
    Saturday, Saturday, Saturday, 

    F 
e------------------------------------------| 
B------------------------------------------| 
G---10--10--10---10--10--10---10--10--10---| 
D---12--12--10---12--12--10---12--12--10---| 
A------------------------------------------| 
E------------------------------------------| 
    Saturday,    Saturday,    Saturday night's alright! 

    C                            
e---------------------------------| 
B---------------------------------| 
G---5--5--5---5--5--5---5--5--5---| 
D---7--7--5---7--7--5---7--7--5---| 
A---------------------------------| 
E---------------------------------| 


Bass tab: 

I did this in 8/4 to eliminate the need for Ties. 


           q  e  e  e  e  e  e  q  e  e  e  e  q     q  q  q  e  q       
G---|------0--0-----0--------0--0--0-----0--------|--------------------- 
D---|--8:--------3-----2--0-----------3-----2--0--|--3--0-----0--3------ 
A---|--4:-----------------------------------------|--------3------------ 
E---|---------------------------------------------|--------------------- 
                                                                         

    e  q  q  e  e     q  q  q  e  q  e  q  q  e  e     q  e  e  e  e     
G------------------|--------------------------------|--0--0-----0------- 
D---3--0-----------|-----------------------------0--|--------3-----2---- 
A---------3--3--0--|--3--0-----0--3--3--0-----3-----|------------------- 
E------------------|--------3--------------3--------|------------------- 
                                                                         

    e  e  q  e  e  e  e  q     q  e  e  e  e  e  e  q  e  e  e  e  q     
G------0--0--0-----0--------|--0--0-----0--------0--0--0-----0---------- 
D---0-----------3-----2--0--|--------3-----2--0-----------3-----2--0---- 
A---------------------------|------------------------------------------- 
E---------------------------|------------------------------------------- 
                                                                         

       q  q  q  e  q  e  q  q  e  e     q  q  q  e  q  e  q  q  e  e     
G---|--------------------------------|---------------------------------- 
D---|--3--0-----0--3--3--0-----------|-----------------------------0---- 
A---|--------3--------------3--3--0--|--3--0-----0--3--3--0-----3------- 
E---|--------------------------------|--------3--------------3---------- 
                                                                         

       q  e  e  e  e  e  e  q  e  q  q  e     e  e  e  e  e  e  e  e     
G---|--0--0-----0--------0--0--0-----------|---------------------------- 
D---|--------3-----2--0--------------------|--0--0--0--0--0--0--0--0---- 
A---|-----------------------------2--3--4--|---------------------------- 
E---|--------------------------------------|---------------------------- 
                                                                         

    e  e  e  e  e  e  e  e     q  q  q  e  q  e  q  q  e  e     q  q     
G---------------------------|--------------------------------|---------- 
D---0--0--0--0--0--0--0--0--|--------------------------------|---------- 
A---------------------------|--3--0-----0--3--3--0-----0-----|--1------- 
E---------------------------|--------3--------------3-----3--|-----3---- 
                                                                         

    q  e  q  e  q  q  e  e     q  q  q  e  q  e  q  q  e  e     q  q     
G---------------------------|--------------------------------|---------- 
D---------------------------|--3--0-----0--3--3--0-----------|---------- 
A---------1--1--------------|--------3--------------3--3--0--|--3--0---- 
E---1--3--------3--1--3--1--|--------------------------------|---------- 
                                                                         

    q  e  q  e  q  q  e  e     q  q  q  e  q  e  q  q  e  e     q  q     
G---------------------------|--------------------------------|---------- 
D---------------------------|--------------------------------|---------- 
A------0--3--3--0-----0-----|--3--0-----0--3--3--0-----0-----|--1------- 
E---3--------------3-----3--|--------3--------------3-----3--|-----3---- 
                                                                         

    q  e  q  e  q  q  e  e     q  q  q  e  q  e  q  q  e  e     q  q     
G---------------------------|--------------------------------|---------- 
D---------------------------|--3--0-----0--3--3--0-----------|---------- 
A---------1--1--------------|--------3--------------3--3--0--|--3--0---- 
E---1--3--------3--1--3--1--|--------------------------------|---------- 
                                                                         

    q  e  q  q  q  q  e     q  e  e  q  e  e  e  e  q  q  q     e  e     
G------------------------|--0-----0--0--------------3--------|---------- 
D---------------2--3--4--|-----0--------4--3--1--1-----0-----|---------- 
A------0--3--3-----------|--------------------------------3--|--0--1---- 
E---3--------------------|-----------------------------------|---------- 
                                                                         

    e  e  e  e  e  e  e  e  e  e  e  e  q  q     e  e  e  e  e  e  e     
G------------------------------------------0--|--0--0-----0--0--0------- 
D---------------------------------------3-----|--------0-----------0---- 
A---2--3--3--3--3--3--3--3--3--3--3--3--------|------------------------- 
E---------------------------------------------|------------------------- 
                                                                         

    e  e  e  q  q  q     e  e  e  e  e  e  e  e  e  e  q  q  q           
G---0--0--0--------0--|--0--0-----0--0--0-----0--0--0--------0--||------ 
D------------0--3-----|--------0-----------0-----------0--3-----||------ 
A---------------------|-----------------------------------------||------ 
E---------------------|-----------------------------------------||------ 
                                                                         



======================================================================== 
==                       TABLATURE EXPLANATION                        == 
======================================================================== 

----------                ----------                ----t--- 
----5h8--- Hammeron       ----(8)--- Ghost          ----6--- Tap 
----------                ---------- Note           -------- 
----5p8--- Pulloff        ----------                -------- 

----------                ----------                -----p-- 
----5/8--- Slide Up       -----x---- Dead           -----7-- Pop 
----------                ---------- Note           --s----- 
----5\8--- Slide Down     ----------                --5----- Slap  

----------                ||------|| Repeat         -------- 
----5~~~-- Vibrato        ||*----*||                ---5^--- Bend 
----------                ||*----*||                -------- 
----------                ||------||                -------- 

----------                ----------                -------- 
-4:------- Time           ----------                -------- 
-4:------- Signature      ----------                -------- 
----------                ----------                -------- 

Rhythm: 
  w = whole note            W = dotted whole 
  h = half note             H = dotted half 
  q = quarter note          Q = dotted quarter 
  e = eighth note           E = dotted eighth 
  s = sixteenth note        S = dotted sixteenth 
  t = 32nd note             T = dotted 32nd 
  x = 64th note             X = dotted 64th 
  ^ = triplet 

	  

Full key step upFull key step up
Half key step upHalf key step up
Half key step downHalf key step down
Full key step downFull key step down
Search Paypal
auto scroll beats size up size down change color hide chords drawings
tab show chords e-chords YouTube Clip e-chords hide all tabs e-chords go to top tab

share with facebook