Elis Regina & Tom Jobim

fascinação Tab

Elis Regina & Tom Jobim

Difficulty: EasyEasy

by hukv8

tuner correct add songbook print version text version save to e-mail
chordsukulelecavacokeyboardtabbassdrumsharmonicsflute Guitar Pro
close

there isn't a video lesson for this song

request
chords

fascinação

  		--------------------------------------------------------------------------
--------------------------------------------------------------------------
--------4---------7----------------12--11--12--11-----4----------7--------
------4--5------------------------------------------------4--5------------
--------------------------------------------------------------------------
--------------------------------------------------------------------------





---------------------------------------------------------------------------------------
---------------------------------------------------------------------------------------
--------12-11--12--11----9--11----9------4----------7------------14-------12--11-------
-----------------------------------------------------4--5------------------------------
---------------------------------------------------------------------------------------
---------------------------------------------------------------------------------------



---------------------------------------------------------------------------------------------
---------------------------------------------------------------------------------------------
------------------------------------4----------7------------12---11---12--11---------4-------
--------------12---11--------------7---5-------4----5----------------------------------------
---------------------------------------------------------------------------------------------
---------------------------------------------------------------------------------------------


-----------------------------------------------------------------------------------------------------------
-----------------------------------------------------------------------------------------------------------
------7-----------12---11---12--11-----9-------11-------9-------4-----------7---------14--------12---11----
---------4----5----------------------------------------------------------------------------4---5-----------
-----------------------------------------------------------------------------------------------------------
-----------------------------------------------------------------------------------------------------------


-----------------------------------------------------------------------------
----------------------------------------------------------------------------- 
---------------------------------------4---------7------9---------11---12---- 
-------------------------------12--11-----------7-------5------4--4-5--------
-----------------------------------------------------------------------------
----------------------------------------------------------------------------- 

	  

Search Paypal
auto scroll beats size up size down change color hide chords drawings
tab show chords e-chords YouTube Clip e-chords hide all tabs e-chords go to top tab

share with facebook