Electric Light Orchestra

State Of Mind

Electric Light Orchestra

tabs

by  EDSOOLIVEIRA

save to print version add songbook text version e-mail correct tuner
chordsukulelecavacokeyboardtabbassdrumsharmonicaflute Guitar Pro
close

there isn't a video lesson for this song

chords

State Of Mind

(Jeff Lynne)

	  			

INTRO
E|---------------------------------------------------------------------------|
B|---------------------------------------------------------------------------|
G|---------------------------------------------------------------------------|
D|-----------2---------------------------------------------------------------|
A|--2-4-5-5-4------2-4-5-5-4-2-----------------------------------------------|
E|-0--------------0----------------------------------------------------------|


VERSE "I was going round the world.."
E|---------------------------------------------------------------------------|
B|---------------------------------------------------------------------------|
G|---------------------------------------------------------------------------|
D|-----------2---------------------------------------------------------------|
A|--2-4-5-5-4-----2-4-5-5-4-2------------------------------------------------|
E|-0-------------0-----------------------------------------------------------|
x3

E|---------------------------------------------------------------------------|
B|---------------------------------------------------------------------------|
G|-----------2---------------------------------------------------------------|
D|--2-4-5-5-4-----2-4-5-5-4-2------------------------------------------------|
A|-0-------------0-----------------------------------------------------------|
E|---------------------------------------------------------------------------|
x1

E|---------------------------------------------------------------------------|
B|---------------------------------------------------------------------------|
G|---------------------------------------------------------------------------|
D|-----------2---------------------------------------------------------------|
A|--2-4-5-5-4-----2-4-5-5-4-2------------------------------------------------|
E|-0-------------0-----------------------------------------------------------|
x1


BRIDGE "Didn't want do to it cause I knew what I'd find..."
E|---------------------------------------------------------------------------|
B|-22--22--22--22--22--22----------------------------------------------------|
G|-22--22--22--22--22--22----------------------------------------------------|
D|-22--22--22--22--22--22----------------------------------------------------|
A|-00--00--00--00--00--00----------------------------------------------------|
E|---------------------------------------------------------------------------|
PM-    -        -       -|

E|---------------------------------------------------------------------------|
B|---------------------------------------------------------------------------|
G|----------------------7--9-------------------------------------------------|
D|-----------2----------7--9-------------------------------------------------|
A|--2-4-5-5-4-----2-4-5-5--7-------------------------------------------------|
E|-0-------------0-----------------------------------------------------------|



CHORUS "Sometimes you get lost, sometimes you get found..."
    A        C#   A    A  Ab  E
E|-0--------4---------5------0-----------------------------------------------|
B|-2--------5---------5------0-----------------------------------------------|
G|-2--------6----5----5------1-----------------------------------------------|
D|-2--------6----7----7--6---2-----------------------------------------------|
A|-0--------4----7----7--6---2-----------------------------------------------|
E|---------------5----5--4---0-----------------------------------------------|


SOLO
1st Guitar
E|---------------------------------------------------------------------------|
B|----3------------------3---------------------------3-----------------------|
G|-2/4---4\2-2p0h2----2/4--4\2-2p0h2--------------2/4-4\2-2p0h2--------------|
D|-----------------2----------------2--------------------------2-------------|
A|---------------------------------------------------------------------------|
E|---------------------------------------------------------------------------|

2nd guitar
E|---------------------------------------------------------------------------|
B|---------------------------------------------------------------------------|
G|---------------------------------7b7b7b7b7b7b7br---------------------------|
D|---------------------------------------------------------------------------|
A|---------------------------------------------------------------------------|
E|---------------------------------------------------------------------------|

1st guitar
E|-3p2p0------------3p2p0----------------------------------------------------|
B|------3p2p0---0h3------3p2p0-----------------------------------------------|
G|-----------2p0--------------2p0--------------------------------------------|
D|---------------------------------------------------------------------------|
A|---------------------------------------------------------------------------|
E|---------------------------------------------------------------------------|

2nd guitar
E|------------------------------------------------------------------------------------------12--|
B|-------------------3h5p3-4h6p4-5h7p5-6h8p6-7h9p7-8h10p8-9h11p9-10h12p10-11h13p11-12h14p12-15b-|
G|----------------------------------------------------------------------------------------------|
D|----------------------------------------------------------------------------------------------|
A|----------------------------------------------------------------------------------------------|
E|----------------------------------------------------------------------------------------------|

1st Guitar
E|---------------------------------------------------------------------------|
B|----3------------------3---------------------------------------------------|
G|-2/4---4\2-2p0h2----2/4--4\2-2p0h2-----------------------------------------|
D|-----------------2----------------2----------------------------------------|
A|---------------------------------------------------------------------------|
E|---------------------------------------------------------------------------|

2nd guitar
E|----------------------------------------12---------------------------------|
B|----------------------------------------15b--------------------------------|
G|---------------------------------------------------------------------------|
D|---------------------------------------------------------------------------|
A|---------------------------------------------------------------------------|
E|---------------------------------------------------------------------------| 
		  

auto scroll beats size up size down change color hide chords drawings
tab show chords e-chords YouTube Clip e-chords hide all tabs e-chords go to top tab

share