Eisbrecher

Wenn Zeit Die Wunden Heilt

Eisbrecher

tabs

by  ALYSLIMA

save to print version add songbook text version e-mail correct tuner
chordsukulelecavacokeyboardtabbassdrumsharmonicaflute Guitar Pro
close

there isn't a video lesson for this song

chords

Wenn Zeit Die Wunden Heilt

	  		
Afinação: C G C F A D 

intro 
 
D|------------------------------------------| 
A|------------------------------------------| 
F|------------------------------------------| 
C|--7-7--0-0--3-3--5-5--7-7--0-0--3-3--8-8--| 
G|--7-7--0-0--3-3--5-5--7-7--0-0--3-3--8-8--| 
C|--7-7--0-0--3-3--5-5--7-7--0-0--3-3--8-8--| x4 
 
 

verse 
 
D|-------------------------------| 
A|-------------------------------| 
F|-------------------------------| 
C|--0-3-0------0-3-0------0-3-0--| 
G|--0-3-0------0-3-0------0-3-0--| 
C|--0-3-0------0-3-0------0-3-0--| x2 
 
 

Chorus 
 
D|---------------------------------------------------------------------------| 
A|---------------------------------------------------------------------------| 
F|---------------------------------------------------------------------------| 
C|--0-0--3-3--5-5--7-7--0-0--3-3--5-5--7-7--8-8-8-8-8-8-8-8-5-5-5-5-5-5-5-5--| 
G|--0-0--3-3--5-5--7-7--0-0--3-3--5-5--7-7--8-8-8-8-8-8-8-8-5-5-5-5-5-5-5-5--| 
C|--0-0--3-3--5-5--7-7--0-0--3-3--5-5--7-7--8-8-8-8-8-8-8-8-5-5-5-5-5-5-5-5--| x2 
 

 
D|-------------------------------------------------------------------| 
A|-------------------------------------------------------------------| 
F|-------------------------------------------------------------------| 
C|--0-0-0-0-0-0-0-0-7-7-7-7-7-7-7-7-8-8-8-8-8-8-8-8-5-5-5-5-5-5-5-5--| 
G|--0-0-0-0-0-0-0-0-7-7-7-7-7-7-7-7-8-8-8-8-8-8-8-8-5-5-5-5-5-5-5-5--| 
C|--0-0-0-0-0-0-0-0-7-7-7-7-7-7-7-7-8-8-8-8-8-8-8-8-5-5-5-5-5-5-5-5--| 
 

 
D|-----------------------------------------------------------------------| 
A|-----------------------------------------------------------------------| 
F|-----------------------------------------------------------------------| 
C|--8-8-8-8-8-8-8-8-8-8-8-8-8-8-8-8--10-10--10-10--10-10--10-10--10--10--| 
G|--8-8-8-8-8-8-8-8-8-8-8-8-8-8-8-8--10-10--10-10--10-10--10-10--10--10--| 
C|--8-8-8-8-8-8-8-8-8-8-8-8-8-8-8-8--10-10--10-10--10-10--10-10--10--10--| 
 
 

intro 
 
D|------------------------------------------| 
A|------------------------------------------| 
F|------------------------------------------| 
C|--7-7--0-0--3-3--5-5--7-7--0-0--3-3--8-8--| 
G|--7-7--0-0--3-3--5-5--7-7--0-0--3-3--8-8--| 
C|--7-7--0-0--3-3--5-5--7-7--0-0--3-3--8-8--| x4 
 
 

verse 
 
D|----------------------------------------| 
A|----------------------------------------| 
F|----------------------------------------| 
C|--0-3-0------0-3-0------0-3-0------8/3--| 
G|--0-3-0------0-3-0------0-3-0------8/3--| 
C|--0-3-0------0-3-0------0-3-0------8/3--| 
 

 
D|-------------------------------| 
A|-------------------------------| 
F|-------------------------------| 
C|--0-3-0------0-3-0------0-3-0--| 
G|--0-3-0------0-3-0------0-3-0--| 
C|--0-3-0------0-3-0------0-3-0--| 
 
 

Chorus 
 
D|---------------------------------------------------------------------------| 
A|---------------------------------------------------------------------------| 
F|---------------------------------------------------------------------------| 
C|--0-0--3-3--5-5--7-7--0-0--3-3--5-5--7-7--8-8-8-8-8-8-8-8-5-5-5-5-5-5-5-5--| 
G|--0-0--3-3--5-5--7-7--0-0--3-3--5-5--7-7--8-8-8-8-8-8-8-8-5-5-5-5-5-5-5-5--| 
C|--0-0--3-3--5-5--7-7--0-0--3-3--5-5--7-7--8-8-8-8-8-8-8-8-5-5-5-5-5-5-5-5--| x2 
 

 
D|-------------------------------------------------------------------| 
A|-------------------------------------------------------------------| 
F|-------------------------------------------------------------------| 
C|--0-0-0-0-0-0-0-0-7-7-7-7-7-7-7-7-8-8-8-8-8-8-8-8-5-5-5-5-5-5-5-5--| 
G|--0-0-0-0-0-0-0-0-7-7-7-7-7-7-7-7-8-8-8-8-8-8-8-8-5-5-5-5-5-5-5-5--| 
C|--0-0-0-0-0-0-0-0-7-7-7-7-7-7-7-7-8-8-8-8-8-8-8-8-5-5-5-5-5-5-5-5--| 
 

 
D|-----------------------------------------------------------------------| 
A|-----------------------------------------------------------------------| 
F|-----------------------------------------------------------------------| 
C|--8-8-8-8-8-8-8-8-8-8-8-8-8-8-8-8--10-10--10-10--10-10--10-10--10--10--| 
G|--8-8-8-8-8-8-8-8-8-8-8-8-8-8-8-8--10-10--10-10--10-10--10-10--10--10--| 
C|--8-8-8-8-8-8-8-8-8-8-8-8-8-8-8-8--10-10--10-10--10-10--10-10--10--10--| 
 
 

bridge 
 
D|-----------------------------------------------------------------------------| 
A|-----------------------------------------------------------------------------| 
F|-----------------------------------------------------------------------------| 
C|-----------------------------------------------------------------------------| 
G|--0----0-5-5-5-5-5-5-3---3-7-7-7-7-7-7-0----0-5-5-5-5-5-5-3---3-7-7-7-7-7-7--| 
C|--0----0-5-5-5-5-5-5-3---3-7-7-7-7-7-7-0----0-5-5-5-5-5-5-3---3-7-7-7-7-7-7--| 
 
PM .    . . . . . . . .   . . . . . . . .    . . . . . . . .   . . . . . . . 

 
D|------------------------------------------------------------| 
A|------------------------------------------------------------| 
F|------------------------------------------------------------| 
C|------------------------------------------------------------| 
G|------------------------------------------------------------| 
C|--0~~~~~~5~~~~~~~3~~~~~~7~~~~~~0~~~~~~5~~~~~~~3~~~~~~7~~~~~~ 
 
 

Chorus 
 
D|---------------------------------------------------------------------------| 
A|---------------------------------------------------------------------------| 
F|---------------------------------------------------------------------------| 
C|--0-0--3-3--5-5--7-7--0-0--3-3--5-5--7-7--8-8-8-8-8-8-8-8-5-5-5-5-5-5-5-5--| 
G|--0-0--3-3--5-5--7-7--0-0--3-3--5-5--7-7--8-8-8-8-8-8-8-8-5-5-5-5-5-5-5-5--| 
C|--0-0--3-3--5-5--7-7--0-0--3-3--5-5--7-7--8-8-8-8-8-8-8-8-5-5-5-5-5-5-5-5--| x2 
 

 
D|-------------------------------------------------------------------| 
A|-------------------------------------------------------------------| 
F|-------------------------------------------------------------------| 
C|--0-0-0-0-0-0-0-0-7-7-7-7-7-7-7-7-8-8-8-8-8-8-8-8-5-5-5-5-5-5-5-5--| 
G|--0-0-0-0-0-0-0-0-7-7-7-7-7-7-7-7-8-8-8-8-8-8-8-8-5-5-5-5-5-5-5-5--| 
C|--0-0-0-0-0-0-0-0-7-7-7-7-7-7-7-7-8-8-8-8-8-8-8-8-5-5-5-5-5-5-5-5--| 
 

 
D|---------------------------------------------------------------| 
A|---------------------------------------------------------------| 
F|---------------------------------------------------------------| 
C|--8-8-8-8-8-8-8-8-8-8-8-8-8-8-8-8--10-10--10-10--10-10--10-10--| 
G|--8-8-8-8-8-8-8-8-8-8-8-8-8-8-8-8--10-10--10-10--10-10--10-10--| 
C|--8-8-8-8-8-8-8-8-8-8-8-8-8-8-8-8--10-10--10-10--10-10--10-10--| 
 
 

end riff 
 
D|------------------------------------------| 
A|------------------------------------------| 
F|------------------------------------------| 
C|--7-7--0-0--3-3--5-5--7-7--0-0--3-3--8-8--| 
G|--7-7--0-0--3-3--5-5--7-7--0-0--3-3--8-8--| 
C|--7-7--0-0--3-3--5-5--7-7--0-0--3-3--8-8--| x3 
 

 
D|----------------------| 
A|----------------------| 
F|----------------------| 
C|--7-7--0-0--3-3--5-5--| 
G|--7-7--0-0--3-3--5-5--| 
C|--7-7--0-0--3-3--5-5--| 
 
		  

See also:

tabs Die Toten Hosen - Auswartspiel tabs Die Toten Hosen - Altes Fieber tabs Starsailor - This time tabs Rammstein - Mein Land tabs Die Toten Hosen - Unsterblich tabs Rammstein - Ich Tu Dir Weh
e-chords

Other versions:

tabs Eisbrecher - Wenn Zeit Die Wunden Heilt
auto scroll beats size up size down change color hide chords drawings
tab show chords e-chords YouTube Clip e-chords hide all tabs e-chords go to top tab

share