Egypt Central

You Make Me Sick

Egypt Central

tabs

by  GUITARISM97

save to print version add songbook text version e-mail correct tuner
chordsukulelecavacokeyboardtabbassdrumsharmonicaflute Guitar Pro
close

there isn't a video lesson for this song

chords

You Make Me Sick

	  		(intro/Chorus){figure strumming out by listening to song} 
e|------------------------------|-----------------------------------| 
b|-------------4/7--------------|-----------------------------------| 
g|-8-----------4------------6---|--8------------13---11-------------| 
d|-9-----2-----2------8-----4---|--9-----9------9----9------8---6---| 
a|-6-----2-----2------4-----4---|--6-----9------9----9------4---4---| 
D|-6-----2-----2------4-----4---|--6-----9------9----9------4---4---| 

(verses) 
e|------------------------------------------------------------------| 
b|------------------------------------------------------------------| 
g|------------------------------------------------------------------| 
d|-6-----9-9-9-9-8-8-8-8-6-6-6-6--6-----9-9-9-9-8-8-8-8-11-11-11-11-|(11's) 
a|-6(x4)--------------------------6(x4)-----------------------------| 
D|-6------------------------------6---------------------------------| 

e|------------------------------------------------------------------| 
b|------------------------------------------------------------------| 
g|------------------------------------------------------------------| 
d|-2-----9-9-9-9-8-8-8-8-6-6-6-6--2-----9-9-9-9-8-8-8-8-11-11-11-11-| 
a|-2(x4)--------------------------2(x4)-----------------------------| 
D|-2------------------------------2---------------------------------| 

Repeat verses twice then switch back into the intro/Chorus. thats all i have so far good luck. 

intro/Chorus 
verse 1 
intro/Chorus 
verse 2(same as verse 1) 
intro/ Chorus 
		  

auto scroll beats size up size down change color hide chords drawings
tab show chords e-chords YouTube Clip e-chords hide all tabs e-chords go to top tab

share