Egypt Central

Enemy Inside Part 2

Egypt Central

tabs

by  VICTBORGES

save to print version add songbook text version e-mail correct tuner
chordsukulelecavacokeyboardtabbassdrumsharmonicaflute Guitar Pro
close

there isn't a video lesson for this song

chords

Enemy Inside Part 2

	  		


Tuning: Drop B F# B E G# C# 


Intro 

Guitar 1/2: 
C#||-------------------------------------------------| 
G#||-------------------------------------------------| 
E ||------------------------------------------2-1----| 
B ||--------6----7----6-----------2--------2---------| x3 
F#||-----4---------------------0---------2--------2--| 
B ||--4--------4----4-------0---------2--------------| 


C#||--------------------------------------------| 
G#||--------------------------------------------| 
E ||--------------------------------------------| 
B ||--------2--------2-----------12---------11--| 
F#||-----0---------0----------9----------9------| 
B ||--0---------0----------9----------9---------| 


C#||-----------------------------------------------------| 
G#||-----------------------------------------------------| 
E ||-----------------------------------------------------| 
B ||--------2--------2-----11--11--11--11--11--11--11~---| 
F#||-----0---------0-------9---9---9---9---9---9---9-~---| 
B ||--0---------0----------9---9---9---9---9---9---9-~---| 



Chorus 
Guitar 1: 
C#||-----------------------------------------------------| 
G#||-----------------------------------------------------| 
E ||----------------------------------------77/14141414--| 
B ||--4~----4~----77--7--77---9~----9~---9--xx/x-x-x-x---| 
F#||--4~----4~----77--7--77---9~----9~---9--55/12121212--| 
B ||--4~----4~----77--7--77---9~----9~---9---------------| 


Guitar 2: 
C#||-----------------------------------------------------| 
G#||-----------------------------------------------------| 
E ||--------------------------------14-13~---14-11~------| 
B ||--4~----4~----77--7--77---9--9--x--x-----x--x--------| 
F#||--4~----4~----77--7--77---9--9--12-11~---12-9~-------| 
B ||--4~----4~----77--7--77---9--9-----------------------| 


Guitar 1/2: 
C#||---------------------------------------------| 
G#||---------------------------------------------| 
E ||---------------------------------------------| 
B ||--4~----4~----77--7--77--------12-11---12p9--| 
F#||--4~----4~----77--7--77------9---------------| 
B ||--4~----4~----77--7--77---9------------------| 


C#||-----------------------------------------------| 
G#||-----------------------------------------------| 
E ||---------------------------------11/14141414\--| 
B ||--7-7-7-7-9-9-9-9-11-11-11-11-11-x-/x-x-x-x-\--| 
F#||--5-5-5-5-7-7-7-7-9--9--9--9--9--9-/12121212\--| 
B ||-----------------------------------------------| 


C#||----------------------| 
G#||----------------------| 
E ||----------------------| 
B ||--7-7-7-7-7-7-7-7-6~--| 
F#||--5-5-5-5-5-5-5-5-4~--| 
B ||----------------------| 



Pre-Verse 
Guitar 1: 
C#||----------------------------------------| 
G#||------------------------------------2~--| 
E ||------------------------------------x---| 
B ||--------6----7----6-----------2-----2~--| 
F#||-----4---------------------0--------0~--| 
B ||--4--------4----4-------0---------------| 



Verse 
Guitar 1: 
C#||-------------------------------------------------| 
G#||-------------------------------------------------| 
E ||------------------------------------------2-1----| 
B ||--------6----7----6-----------2--------2---------| x3 
F#||-----4---------------------0---------2--------2--| 
B ||--4--------4----4-------0---------2--------------| 


C#||--------------------------------------------| 
G#||--------------------------------------------| 
E ||--------------------------------------------| 
B ||--------2--------2-----------12---------11--| 
F#||-----0---------0----------9----------9------| 
B ||--0---------0----------9----------9---------| 


C#||------------------------------------------------------| 
G#||------------------------------------------------------| 
E ||------------------------------------------------------| 
B ||--------2--------2-----11--11--11--11--11--11--x-x-x--| 
F#||-----0---------0-------9---9---9---9---9---9---x-x-x--| 
B ||--0---------0----------9---9---9---9---9---9---x-x-x--| 



Chorus 
Guitar 1: 
C#||-----------------------------------------------------| 
G#||-----------------------------------------------------| 
E ||----------------------------------------77/14141414--| 
B ||--4~----4~----77--7--77---9~----9~---9--xx/x-x-x-x---| 
F#||--4~----4~----77--7--77---9~----9~---9--55/12121212--| 
B ||--4~----4~----77--7--77---9~----9~---9---------------| 


Guitar 2: 
C#||-----------------------------------------------------| 
G#||-----------------------------------------------------| 
E ||--------------------------------14-13~---14-11~------| 
B ||--4~----4~----77--7--77---9--9--x--x-----x--x--------| 
F#||--4~----4~----77--7--77---9--9--12-11~---12-9~-------| 
B ||--4~----4~----77--7--77---9--9-----------------------| 


Guitar 1/2: 
C#||---------------------------------------------| 
G#||---------------------------------------------| 
E ||---------------------------------------------| 
B ||--4~----4~----77--7--77--------12-11---12p9--| 
F#||--4~----4~----77--7--77------9---------------| 
B ||--4~----4~----77--7--77---9------------------| 


C#||-----------------------------------------------| 
G#||-----------------------------------------------| 
E ||---------------------------------11/14141414\--| 
B ||--7-7-7-7-9-9-9-9-11-11-11-11-11-x-/x-x-x-x-\--| 
F#||--5-5-5-5-7-7-7-7-9--9--9--9--9--9-/12121212\--| 
B ||-----------------------------------------------| 


C#||----------------------| 
G#||----------------------| 
E ||----------------------| 
B ||--7-7-7-7-7-7-7-7-6~--| 
F#||--5-5-5-5-5-5-5-5-4~--| 
B ||----------------------| 



Bridge 
Guitar 1/2: 
C#||--------------------------------------------------------------------------------------| 
G#||--------------------------------------------------------------------------------------| 
E ||--------------------------------------------------------------------------------------| 
B ||--------------------------------------------------------------------------------------| 
F#||----------------------------------------------------------------------------------7\--| 
B ||--4-4-4-4-4-4-4-4-2-2-2-2-2-2-2-2-0-0-0-0-0-0-0-0-0-0-0-0-0-0-0-0-2-2-2-2-2-2-2-2-----| 
      . . . . . . . . . . . . . . . . . . . . . . . . . . . . . . . . . . . . . . . . 


Solo 
Guitar 1: 
C#||----------------------------------------------------| 
G#||----------------------------------------------------| 
E ||--------11-11---------------------------------------| 
B ||--------------14-14-11-11--------------------11-11--| 
F#||--12-12--------------------14-14-12-12-14-14--------| 
B ||----------------------------------------------------| 


C#||---------------------------------------------| 
G#||--------------12-12-------------------14br~--| 
E ||--------11-11-------11-11-14-14-11-11--------| 
B ||---------------------------------------------| 
F#||--12-12--------------------------------------| 
B ||---------------------------------------------| 


C#||----------------------------------------------------| 
G#||----------------------------------------------------| 
E ||--------11-11---------------------------------------| 
B ||--------------14-14-11-11--------------------11-11--| 
F#||--12-12--------------------14-14-12-12-14-14--------| 
B ||----------------------------------------------------| 


C#||---------------------------------------------------| 
G#||--------------12-12-------------------12-12--------| 
E ||--------11-11-------11-11-14-14-11-11-------11-11--| 
B ||---------------------------------------------------| 
F#||--12-12--------------------------------------------| 
B ||---------------------------------------------------| 


C#||--------------12-12-------------------12-12--------| 
G#||--14-14-------------------14-14--------------------| 
E ||--------14-14-------14-14-------14-14-------14-14--| 
B ||---------------------------------------------------| 
F#||---------------------------------------------------| 
B ||---------------------------------------------------| 


C#||--12-12-------14-14-------12-12-------14-14--------| 
G#||--------14-14-------14-14-------14-14-------12-12--| 
E ||---------------------------------------------------| 
B ||---------------------------------------------------| 
F#||---------------------------------------------------| 
B ||---------------------------------------------------| 


C#||--17-17-------16-16-------17-17-------16br~--14~--| 
G#||--------14-14-------14-14-------14-14-------------| 
E ||--------------------------------------------------| 
B ||--------------------------------------------------| 
F#||--------------------------------------------------| 
B ||--------------------------------------------------| 


Guitar 2: 
C#||---------------------------------------------------| 
G#||---------------------------------------------------| 
E ||---------------------------------------------------| 
B ||--4-4-4-4-4-4-4-4-2-2-2-2-2-2-2-2-0-0-0-0-0-0-0-0--| x2 
F#||--4-4-4-4-4-4-4-4-2-2-2-2-2-2-2-2-0-0-0-0-0-0-0-0--| 
B ||--4-4-4-4-4-4-4-4-2-2-2-2-2-2-2-2-0-0-0-0-0-0-0-0--| 


C#||------------------| 
G#||------------------| 
E ||------------------| 
B ||--7-7-7-7-2-2-----| 
F#||--7-7-7-7-2-2-7\--| 
B ||--7-7-7-7-2-2-----| 



Chorus 
Guitar 1: 
C#||-----------------------------------------------------| 
G#||-----------------------------------------------------| 
E ||----------------------------------------77/14141414--| 
B ||--4~----4~----77--7--77---9~----9~---9--xx/x-x-x-x---| 
F#||--4~----4~----77--7--77---9~----9~---9--55/12121212--| 
B ||--4~----4~----77--7--77---9~----9~---9---------------| 


Guitar 2: 
C#||-----------------------------------------------------| 
G#||-----------------------------------------------------| 
E ||--------------------------------14-13~---14-11~------| 
B ||--4~----4~----77--7--77---9--9--x--x-----x--x--------| 
F#||--4~----4~----77--7--77---9--9--12-11~---12-9~-------| 
B ||--4~----4~----77--7--77---9--9-----------------------| 


Guitar 1/2: 
C#||---------------------------------------------| 
G#||---------------------------------------------| 
E ||---------------------------------------------| 
B ||--4~----4~----77--7--77--------12-11---12p9--| 
F#||--4~----4~----77--7--77------9---------------| 
B ||--4~----4~----77--7--77---9------------------| 


C#||-----------------------------------------------| 
G#||-----------------------------------------------| 
E ||---------------------------------11/14141414\--| 
B ||--7-7-7-7-9-9-9-9-11-11-11-11-11-x-/x-x-x-x-\--| 
F#||--5-5-5-5-7-7-7-7-9--9--9--9--9--9-/12121212\--| 
B ||-----------------------------------------------| 


C#||-----------------------------------| 
G#||-----------------------------------| 
E ||-----------------------------------| 
B ||--7-7-7-7-7-7-7-7-6-6-6-6-6-6-6-6--| 
F#||--5-5-5-5-5-5-5-5-4-4-4-4-4-4-4-4--| 
B ||-----------------------------------| 



Chorus / Outro 
Guitar 1: 
C#||-----------------------------------------------------------| 
G#||--10-9~---10--------10-9~---10--------10-9~---10-----------| 
E ||-------------11~---------------11~---------------11~-------| 
B ||------------------------------------------------------9~\--| 
F#||-----------------------------------------------------------| 
B ||-----------------------------------------------------------| 


Guitar 2: 
C#||---------------------------------------------------| 
G#||---------------------------------------------------| 
E ||---------------------------------------------------| 
B ||--4-4-4-4-4-4-4-4-2-2-2-2-2-2-2-2-0-0-0-0-0-0-0-0--| 
F#||--4-4-4-4-4-4-4-4-2-2-2-2-2-2-2-2-0-0-0-0-0-0-0-0--| 
B ||--4-4-4-4-4-4-4-4-2-2-2-2-2-2-2-2-0-0-0-0-0-0-0-0--| 


Guitar 1/2: 
C#||-------------------------------------------------------------------| 
G#||-------------------------------------------------------------------| 
E ||-------------------------------------------------------------------| 
B ||--4-4-4-4-4-4-4-4-2-2-2-2-2-2-2-2-0-0-0-0-0-0-0-0-7-7-7-7-2-2-2-2--| 
F#||--4-4-4-4-4-4-4-4-2-2-2-2-2-2-2-2-0-0-0-0-0-0-0-0-7-7-7-7-2-2-2-2--| 
B ||--4-4-4-4-4-4-4-4-2-2-2-2-2-2-2-2-0-0-0-0-0-0-0-0-7-7-7-7-2-2-2-2--| 


C#||--------------------------------------| 
G#||--------------------------------------| 
E ||--------------------------------------| 
B ||--4-4-4-4-4-4-4-4-0-0-0-0-2-2-2-2-0~--| 
F#||--4-4-4-4-4-4-4-4-0-0-0-0-2-2-2-2-0~--| 
B ||--4-4-4-4-4-4-4-4-0-0-0-0-2-2-2-2-0~--| 




Tablature Legend 
---------------- 
 h   - hammer-on 
 p   - pull-off 
 b   - bend 
 r   - release bend 
 *   - pinch harmonic 
 '   - natural harmonic 
 x   - mute note 
 .   - palm mute 
 /   - slide down 
 \   - slide up 
		  

auto scroll beats size up size down change color hide chords drawings
tab show chords e-chords YouTube Clip e-chords hide all tabs e-chords go to top tab

share