Egypt Central

home > Egypt Central

15 Minutes Tab

Egypt Central

Difficulty: nolevelnolevel

by hebealmeida

tuner correct add songbook print version text version save to e-mail
chordsukulelecavacokeyboardtabbassdrumsharmonicsflute Guitar Pro
chords

15 Minutes

  		Egypt Central - 15 Minutes 


0:00 - Guitar I (clean) 
E|------------------------|------------------------|------------------------|---------------------- 
B|-------------5----------|------------------------|-------------4----------|-------0----------0--- 
G|-------6--------6-----6-|-------6-----------6----|-------6--------6-----6-|----4-----------4----- 
D|----6-----6--------6----|------------------------|----4-----4--------4----|-2--------2--1------1- x2 
A|-4----------------------|----7-----------7-------|------------------------|---------------------- 
E|------------------------|-5--------5--4--------4-|-2----------------------|---------------------- 

------------------------|------------------------|------------------------|------------------------| 
-------------5----------|------------------------|------------------------|------------------------| 
-------6--------6-----6-|-------6-----------6----|-------------1----------|-------------5----------| 
----6-----6--------6----|------------------------|-------2--------2-----2-|-------6--------6-------| 
-4----------------------|----7-----------7-------|----2-----2--------2----|----6-----6-----------6-| 
------------------------|-5--------5--4--------4-|-0----------------------|-4-----------------4----| 


0:21 - Guitar I (Distortion) 
E|---------------------------|----------------------------| 
B|---------------------------|----------------------------| 
G|---------------------------|----------------------------| 
D|--6-6-6--------------------|----------------------------| 
A|--4-4-4--4--4--4--4--4--4--|--7-7-7--------7-7-7--------| 
E|---------------------------|--5-5-5--5--5--4-4-4--4--4--| 
pm         .  .  .  .  .  .            .  .         .  .    

E|---------------------------|----------------------------| 
G|---------------------------|----------------------------| 
G|---------------------------|----------------------------| 
D|---------------------------|----------------------------| 
A|--4-4-4--------------------|--7-7-7--------7-7-7--------| 
E|--2-2-2--2--2--2--2--2--2--|--5-5-5--5--5--4-4-4--4--4--| 
pm         .  .  .  .  .  .            .  .         .  . 

E|---------------------------|----------------------------|-------------------|-------------------| 
B|---------------------------|----------------------------|-------------------|-------------------| 
G|---------------------------|----------------------------|-------------------|-------------------| 
D|--6-6-6--------------------|----------------------------|--2-2-2-2-2-2-2-2--|--6-6-6-6-6-6-6-6--| 
A|--4-4-4--4--4--4--4--4--4--|--7-7-7--------7-7-7--------|--2-2-2-2-2-2-2-2--|--6-6-6-6-6-6-6-6--| 
E|---------------------------|--5-5-5--5--5--4-4-4--4--4--|--0-0-0-0-0-0-0-0--|--4-4-4-4-4-4-4-4--| 
pm         .  .  .  .  .  .            .  .         .  .            


0:21 - Guitar II (Distortion)  
E|----------------------------------|----------------------------------| 
B|----------------------------------|----------------------------------| 
G|--13--14--13------13--------------|--13--14--13------13--------------| 
D|--------------14------14--13--14--|--------------14------14--13--14--| 
A|----------------------------------|----------------------------------| 
E|----------------------------------|----------------------------------| 

E|----------------------------------|----------------------------------| 
B|----------------------------------|----------------------------------| 
G|--13--14--13------13--------------|----------------------------------| 
D|--------------14------14--13--14--|--14--14--14--14--14--13--13--13--| 
A|----------------------------------|----------------------------------| 
E|----------------------------------|----------------------------------| x2 



0:35 - Guitar I (Distortion) 
E|-------------------|-------------------|-------------------|-------------------| 
B|-------------------|-------------------|-------------------|-------------------| 
G|-------------------|-------------------|-------------------|-------------------| 
D|--6-6-6-6-6-6-6-6--|--7-7-7-7-7-7-7-7--|--4-4-4-4-4-4-4-4--|--2-2-2-2-6-6-6-6--| 
A|--4-6-6-6-6-6-6-6--|--7-7-7-7-7-7-7-7--|--4-4-4-4-4-4-4-4--|--2-2-2-2-6-6-6-6--| 
E|--4-4-4-4-4-4-4-4--|--5-5-5-5-5-5-5-5--|--2-2-2-2-2-2-2-2--|--0-0-0-0-4-4-4-4--| 

E|-------------------|-------------------|-------------------|-------------------| 
B|-------------------|-------------------|-------------------|-------------------| 
G|-------------------|-------------------|-------------------|-------------------| 
D|--6-6-6-6-6-6-6-6--|--7-7-7-7-7-7-7-7--|--4-4-4-4-4-4-4-4--|--2----------------| 
A|--4-6-6-6-6-6-6-6--|--7-7-7-7-7-7-7-7--|--4-4-4-4-4-4-4-4--|--2----------------| 
E|--4-4-4-4-4-4-4-4--|--5-5-5-5-5-5-5-5--|--2-2-2-2-2-2-2-2--|--0----------------| 


0:49 - Guitar I (clean) 
E|--------------------------|--------------4-----------| 
B|--------------5-----------|--------------------------| 
G|--------6--------6-----6--|--------6--------6-----6--| 
D|-----6-----6--------6-----|-----6-----6--------6-----| 
A|--4-----------------------|--4-----------------------| 
E|--------------------------|--------------------------| 

E|------------------------|------------------------|------------------------|---------------------- 
B|-------------5----------|------------------------|-------------4----------|-------0----------0--- 
G|-------6--------6-----6-|-------6-----------6----|-------6--------6-----6-|----4-----------4----- 
D|----6-----6--------6----|------------------------|----4-----4--------4----|-2--------2--1------1- 
A|-4----------------------|----7-----------7-------|------------------------|---------------------- 
E|------------------------|-5--------5--4--------4-|-2----------------------|---------------------- 

------------------------|------------------------|------------------------|------------------------| 
-------------5----------|------------------------|------------------------|------------------------| 
-------6--------6-----6-|-------6-----------6----|-------------1----------|-------------5----------| 
----6-----6--------6----|------------------------|-------2--------2-----2-|-------6--------6-------| 
-4----------------------|----7-----------7-------|----2-----2--------2----|----6-----6-----------6-| 
------------------------|-5--------5--4--------4-|-0----------------------|-4-----------------4----| 


1:06 - Guitar I (Distortion) 
E|---------------------------|----------------------------| 
B|---------------------------|----------------------------| 
G|---------------------------|----------------------------| 
D|--6-6-6--------------------|----------------------------| 
A|--4-4-4--4--4--4--4--4--4--|--7-7-7--------7-7-7--------| 
E|---------------------------|--5-5-5--5--5--4-4-4--4--4--| 
pm         .  .  .  .  .  .            .  .         .  .    

E|---------------------------|----------------------------| 
G|---------------------------|----------------------------| 
G|---------------------------|----------------------------| 
D|---------------------------|----------------------------| 
A|--4-4-4--------------------|--7-7-7--------7-7-7--------| 
E|--2-2-2--2--2--2--2--2--2--|--5-5-5--5--5--4-4-4--4--4--| 
pm         .  .  .  .  .  .            .  .         .  . 

E|---------------------------|----------------------------|-------------------|-------------------| 
B|---------------------------|----------------------------|-------------------|-------------------| 
G|---------------------------|----------------------------|-------------------|-------------------| 
D|--6-6-6--------------------|----------------------------|--2-2-2-2-2-2-2-2--|--6-6-6-6-6-6-6-6--| 
A|--4-4-4--4--4--4--4--4--4--|--7-7-7--------7-7-7--------|--2-2-2-2-2-2-2-2--|--6-6-6-6-6-6-6-6--| 
E|---------------------------|--5-5-5--5--5--4-4-4--4--4--|--0-0-0-0-0-0-0-0--|--4-4-4-4-4-4-4-4--| 
pm         .  .  .  .  .  .            .  .         .  .            



1:06 - Guitar II (Distortion) 
E|----------------------------------|----------------------------------| 
B|----------------------------------|----------------------------------| 
G|--13--14--13------13--------------|--13--14--13------13--------------| 
D|--------------14------14--13--14--|--------------14------14--13--14--| 
A|----------------------------------|----------------------------------| 
E|----------------------------------|----------------------------------| 

E|----------------------------------|----------------------------------| 
B|----------------------------------|----------------------------------| 
G|--13--14--13------13--------------|----------------------------------| 
D|--------------14------14--13--14--|--14--14--14--14--14--13--13--13--| 
A|----------------------------------|----------------------------------| 
E|----------------------------------|----------------------------------| x2 



1:20 - Guitar I (Distortion) 
E|-------------------|-------------------|-------------------|-------------------| 
B|-------------------|-------------------|-------------------|-------------------| 
G|-------------------|-------------------|-------------------|-------------------| 
D|--6-6-6-6-6-6-6-6--|--7-7-7-7-7-7-7-7--|--4-4-4-4-4-4-4-4--|--2-2-2-2-6-6-6-6--| x3 
A|--4-6-6-6-6-6-6-6--|--7-7-7-7-7-7-7-7--|--4-4-4-4-4-4-4-4--|--2-2-2-2-6-6-6-6--|  
E|--4-4-4-4-4-4-4-4--|--5-5-5-5-5-5-5-5--|--2-2-2-2-2-2-2-2--|--0-0-0-0-4-4-4-4--| 


E|-------------------|-------------------|-------------------|-------------------| 
B|-------------------|-------------------|-------------------|-------------------| 
G|-------------------|-------------------|-------------------|-------------------| 
D|--6-6-6-6-6-6-6-6--|--7-7-7-7-7-7-7-7--|--4----4-----------|--2-------6--------| 
A|--4-6-6-6-6-6-6-6--|--7-7-7-7-7-7-7-7--|--4----4-----------|--2-------6--------|  
E|--4-4-4-4-4-4-4-4--|--5-5-5-5-5-5-5-5--|--2----2-----------|--0-------4--------| 


1:48 - Guitar I (Clean) 
E|-------------------------|------------------------|------------------------|-----------------| 
B|--------------5----------|------------------------|------------------------|---------5-------| 
G|-------6---------6-----6-|------------------------|-------------6----------|-----------------| 
D|----6-----6---------6----|-------2-----------4----|-------7--------7-----7-|-----7-----7---7-| 
A|-4-----------------------|----2-----------4-------|----7-----7--------7----|---7---7-----7---|x3 
E|-------------------------|-0--------0--2--------2-|-5----------------------|-5---------------| 

E|---------------------------|--------------------------| 
B|---------------5-----------|--------------------------| 
G|--------6---------6-----6--|--------------------------| 
D|-----6-----6---------6-----|--------2-----------4-----| 
A|--4------------------------|-----2-----------4--------| 
E|---------------------------|--0--------0--2--------2--| 


2:12 - Guitar I (Distortion) 
E|-------------------|-------------------| 
B|-------------------|-------------------| 
G|-------------------|-------------------| 
D|-------------------|-------------------| 
A|--7-7-7-7-7-7-7-7--|--7-7-7-7-7-7-7-7--| 
E|--5-5-5-5-5-5-5-5--|--5-5-5-5-5-5-5-5--| 
pm  . . . . . . . .     . . . . . . . . 


E|-------------------|-------------------|-------------------|-------------------| 
B|-------------------|-------------------|-------------------|-------------------| 
G|-------------------|-------------------|-------------------|-------------------| 
D|--6-6-6-6-6-6-6-6--|--2-2-2-2-4-4-4-4--|--7-7-7-7-7-7-7-7--|--7-7-7-7-7-7-7-7--| 
A|--6-6-6-6-6-6-6-6--|--2-2-2-2-4-4-4-4--|--7-7-7-7-7-7-7-7--|--7-7-7-7-7-7-7-7--| 
E|--4-4-4-4-4-4-4-4--|--0-0-0-0-2-2-2-2--|--5-5-5-5-5-5-5-5--|--5-5-5-5-5-5-5-5--| 

E|-------------------|-------------------|-------------------|-------------------| 
B|-------------------|-------------------|-------------------|-------------------| 
G|-------------------|-------------------|-------------------|-------------------| 
D|--6-6-6-6-6-6-6-6--|--2-2-2-2-4-4-4-4--|--7-7-7-7-7-7-7-7--|--7-7-7-7-7-7-7-7--| 
A|--6-6-6-6-6-6-6-6--|--2-2-2-2-4-4-4-4--|--7-7-7-7-7-7-7-7--|--7-7-7-7-7-7-7-7--| 
E|--4-4-4-4-4-4-4-4--|--0-0-0-0-2-2-2-2--|--5-5-5-5-5-5-5-5--|--5-5-5-5-5-5-5-5--| 


2:12 - Guitar II (Distortion) 
E|-------------------|-----------------------| 
B|-------------------|-----------------------| 
G|--6-6-6-6-8-8-8-8--|--9-9-9-9-13-13-13-13--| 
D|-------------------|-----------------------| 
A|--4-4-4-4-6-6-6-6--|--7-7-7-7-11-11-11-11--| 
E|-------------------|-----------------------| 


E|--11-0-12-0-12-0-11-0-12-0-12-0-11-0-12-0--|--12-0-11-0-12-0-0-0-12-12-12-12-11-11-11-11--| 
B|-------------------------------------------|----------------------------------------------| 
G|-------------------------------------------|----------------------------------------------| 
D|-------------------------------------------|----------------------------------------------| 
A|-------------------------------------------|----------------------------------------------| 
E|-------------------------------------------|----------------------------------------------| 


E|-9-0-11-0-9-0-7-0-9-0-7-0-4-0-7-0-|-4-0-2-0-4-0-2-0---0-2-0---0---0-|-12--11--0--12--11-0--12--0-| 
B|----------------------------------|-----------------5-------5---4---|----------------------------| 
G|----------------------------------|---------------------------------|----------------------------| 
D|----------------------------------|---------------------------------|----------------------------| 
A|----------------------------------|---------------------------------|----------------------------| 
E|----------------------------------|---------------------------------|----------------------------| 


E|--11--9--0--11--9--0--11--0--|--14--12--0--14--12--0-14--0--|--14-14-12-12-11-11-14-14-16--------| 
B|-----------------------------|------------------------------|------------------------------------| 
G|-----------------------------|------------------------------|------------------------------------| 
D|-----------------------------|------------------------------|------------------------------------| 
A|-----------------------------|------------------------------|------------------------------------| 
E|-----------------------------|------------------------------|------------------------------------| 

2:30 Guitar I (Distortion) 
E|-------------------|-------------------|-------------------|-------------------| 
B|-------------------|-------------------|-------------------|-------------------| 
G|-------------------|-------------------|-------------------|-------------------| 
D|--6-6-6-6-6-6-6-6--|--7-7-7-7-7-7-7-7--|--4-4-4-4-4-4-4-4--|--2-2-2-2-6-6-6-6--| 
A|--4-6-6-6-6-6-6-6--|--7-7-7-7-7-7-7-7--|--4-4-4-4-4-4-4-4--|--2-2-2-2-6-6-6-6--| x3 
E|--4-4-4-4-4-4-4-4--|--5-5-5-5-5-5-5-5--|--2-2-2-2-2-2-2-2--|--0-0-0-0-4-4-4-4--| 


E|-------------------|-------------------|-------------------|-------------------| 
B|-------------------|-------------------|-------------------|-------------------| 
G|-------------------|-------------------|-------------------|-------------------| 
D|--6-6-6-6-6-6-6-6--|--7-7-7-7-7-7-7-7--|--4-4-4-4-4-4-4-4--|--2-------6--------| 
A|--4-6-6-6-6-6-6-6--|--7-7-7-7-7-7-7-7--|--4-4-4-4-4-4-4-4--|--2-------6--------|  
E|--4-4-4-4-4-4-4-4--|--5-5-5-5-5-5-5-5--|--2-2-2-2-2-2-2-2--|--0-------4--------| 


2:58 Guitar I (Clean) 
E|------------------------|------------------------|------------------------|---------------------- 
B|-------------5----------|------------------------|-------------4----------|-------0----------0--- 
G|-------6--------6-----6-|-------6-----------6----|-------6--------6-----6-|----4-----------4----- 
D|----6-----6--------6----|------------------------|----4-----4--------4----|-2--------2--1------1-  
A|-4----------------------|----7-----------7-------|------------------------|---------------------- 
E|------------------------|-5--------5--4--------4-|-2----------------------|---------------------- 

Fade out 
------------------------|------------------------|------------------------|----------------------| 
-------------5----------|------------------------|-------------4----------|-------0----------0---| 
-------6--------6-----6-|-------6-----------6----|-------6--------6-----6-|----4-----------4-----| 
----6-----6--------6----|------------------------|----4-----4--------4----|-2--------2--1------1-| 
-4----------------------|----7-----------7-------|------------------------|----------------------| 
------------------------|-5--------5--4--------4-|-2----------------------|----------------------| 
	  

Search Paypal
auto scroll beats size up size down change color hide chords drawings
tab show chords e-chords YouTube Clip e-chords hide all tabs e-chords go to top tab