Edwin McCain

The Lucky One

Edwin McCain

tabs

by  PAULLET3

save to print version add songbook text version e-mail correct tuner
chordsukulelecavacokeyboardtabbassdrumsharmonicaflute Guitar Pro
close

there isn't a video lesson for this song

chords

The Lucky One

	  		 

Intro 
    C                  F                  C                  F 
e|------------------|------------------|------------------|------------------| 
B|--1-----1------1--|--1-----1--1------|--1-----1------1--|--1-----1--1---1--| 
G|--0-----0------0--|--2-----2--0h2p0--|--0-----0------0--|--2-----2--0h2-2--| 
D|--2-----2--0h2-2--|--3-----3--3------|--2-----2--0h2-2--|--3-----3--3---3--| 
A|--3-----3--3---3--|------------------|--3-----3--3---3--|------------------| 
E|------------------|------------------|------------------|------------------| 

    C                  F                  G        C   G 
e|------------------|------------------|--------3---------| 
B|--1-----1------1--|--1-----1--1------|--3-----3------3--| 
G|--0-----0------0--|--2-----2--0h2p0--|--0-----0--0---0--| 
D|--2-----2--0h2-2--|--3-----3--3------|--0--------2---0--| 
A|--3-----3--3---3--|------------------|--2--------3---2--| 
E|------------------|------------------|--3------------3--| 

         
Verae 1 
    C                  F                  C                  F 
e|------------------|------------------|------------------|------------------| 
B|--1-----1------1--|--1-----1--1------|--1-----1------1--|--1-----1--1---1--| 
G|--0-----0------0--|--2-----2--0h2p0--|--0-----0------0--|--2-----2--0h2-2--| 
D|--2-----2--0h2-2--|--3-----3--3------|--2-----2--0h2-2--|--3-----3--3---3--| 
A|--3-----3--3---3--|------------------|--3-----3--3---3--|------------------| 
E|------------------|------------------|------------------|------------------| 
(1)     A serious car wreck.                      A bad fall from a cliff 
(2)  Been held up in New Orleans.               Strung out in Stockholm. 

    C                       F                      G                
e|-----------------------|----------------------|---------------------| 
B|--1-------1---------1--|--1-------1----1------|--3----------3-------| 
G|--0-------0---------0--|--2-------2----0h2p0--|--0----------0-------| 
D|--2-------2---0h2---2--|--3-------3----3------|--0----------0-------| 
A|--3-------3---3-----3--|----------------------|--2-------3--2-------| 
E|-----------------------|----------------------|--3----------3-------| 
(1)  and the ragin' blue river once took me from a raft in Breckenridge. 
(2)         I slept on those cold cold streets of New York City alone. 


Transition to Chorus 
    Am                 G/B                C       G/B        Am 
e|------------------|------------------|------------------|-------------------| 
B|----------1-------|----------3-------|--------1-------3-|--------1-0-0-0h1--| 
G|------2-----2---2-|------0-----0---0-|------0-------0---|------2---2-2-0----| 
D|----2---2-----2---|----0---0-----0---|----2-------0-----|----2-----2-2-2----| 
A|--0---------------|--2---------------|--3-------2-------|--0-------0-0-0----| 
E|------------------|------------------|------------------|-------------------| 
             I can't explain        why I'm still here today. 
                         
    Am                     G    C   G 
e|------------------|------------------|---------| 
B|--1-------1-------|------3--------3--|--3------| 
G|--2-------2-------|------0----0---0--|--0------| 
D|--2-------2-------|------0----2---0--|--0------| 
A|--0-------0-------|------2----3---2--|--2------| 
E|------------------|------3--------3--|--3------| 
  I'm just thankful that I am.           Yeah and 

   
Chorus 
    C          F       G          C                  F           G 
e|------------------|------------------|------------------|-------------------| 
B|--1-1--------1----|--3----------1----|--1-1--------1----|------3------------| 
G|--0-0--------2----|--0----------0----|--0-0--------2----|------0------------| 
D|--2-2--0h2---3----|--0----------2----|--2-0h2------3----|------0------------| 
A|--3-3--3----------|--2----------3----|--3-3-------------|------2------------| 
E|------------------|--3---------------|------------------|------3------------| 
(1)I,   have survived more than I should.         I pushed it as far as I 
(2)walked on the edge more than most.         Heaven knows              I've 
         
    Am      G/B        C                  G        C   G 
e|------------------|------------------|------------------|---------| 
B|--1-------3-------|--1----------1----|--3------------3--|--3------| 
G|--2-------0-------|--0----------0----|--0--------0---0--|--0------| 
D|--2-------0-------|--2----------2----|--0--------2---0--|--0------| 
A|--0-------2-------|--3----------3----|--2--------3---2--|--2------| 
E|------------------|------------------|--3------------3--|--3------| 
(1)could.                 reachin for the sky.              And I've 
(2)cut it close,                 but I'm alive.                After 


Transition to Verse strumming 
    Am       G/B       C                  Am      G 
e|------------------|------------------|------------------|---------| 
B|--1--------3------|--1------1--------|--1-------3-------|--3------| 
G|--2--------0------|--0------0---0----|--2-------0-------|--0------| 
D|--2--------0------|--2------0h2-0h2--|--2-------0-------|--0------| 
A|--0--------2------|--3------3---3----|--0-------2-------|--2------| 
E|------------------|------------------|----------3-------|--3------| 
    all that I  have   done.         It's you...    that makes me the 

    C                  F                  C                  F 
e|------------------|------------------|------------------|------------------| 
B|--1-----1------1--|--1-----1--1------|--1-----1------1--|--1-----1--1---1--| 
G|--0-----0------0--|--2-----2--0h2p0--|--0-----0------0--|--2-----2--0h2-2--| 
D|--2-----2--0h2-2--|--3-----3--3------|--2-----2--0h2-2--|--3-----3--3---3--| 
A|--3-----3--3---3--|------------------|--3-----3--3---3--|------------------| 
E|------------------|------------------|------------------|------------------| 
    lucky one. 
         
    C                  F                  G        C   G 
e|------------------|------------------|--------3---------| 
B|--1-----1------1--|--1-----1--1------|--3-----3------3--| 
G|--0-----0------0--|--2-----2--0h2p0--|--0-----0--0---0--| 
D|--2-----2--0h2-2--|--3-----3--3------|--0--------2---0--| 
A|--3-----3--3---3--|------------------|--2--------3---2--| 
E|------------------|------------------|--3------------3--|      
         
         
verse 2 
    C                  F                  C                  F 
e|------------------|------------------|------------------|------------------| 
B|--1-----1------1--|--1-----1--1------|--1-----1------1--|--1-----1--1---1--| 
G|--0-----0------0--|--2-----2--0h2p0--|--0-----0------0--|--2-----2--0h2-2--| 
D|--2-----2--0h2-2--|--3-----3--3------|--2-----2--0h2-2--|--3-----3--3---3--| 
A|--3-----3--3---3--|------------------|--3-----3--3---3--|------------------| 
E|------------------|------------------|------------------|------------------| 
        My heart has been broken.               By love and by death. 

    C                       F                      G                
e|-----------------------|----------------------|---------------------| 
B|--1-------1---------1--|--1-------1----1------|--3----------3-------| 
G|--0-------0---------0--|--2-------2----0h2p0--|--0----------0-------| 
D|--2-------2---0h2---2--|--3-------3----3------|--0----------0-------| 
A|--3-------3---3-----3--|----------------------|--2-------3--2-------| 
E|-----------------------|----------------------|--3----------3-------| 
   I've been down on my bad knees  prayin to Jesus      with a devil's breath. 

    C                  F                  C                  Am 
e|------------------|------------------|------------------|------------------| 
B|--1-----1------1--|--1-----1--1------|--1-----1------1--|--1-----1--1---1--| 
G|--0-----0------0--|--2-----2--0h2p0--|--0-----0------0--|--2-----2--0h2-2--| 
D|--2-----2--0h2-2--|--3-----3--3------|--2-----2--0h2-2--|--2-----2--2---2--| 
A|--3-----3--3---3--|------------------|--3-----3--3---3--|--0-----0--0---0--| 
E|------------------|------------------|------------------|------------------| 
        And I lost all my money.            You know faith and beliefs. 

    C                       F                      G                
e|-----------------------|----------------------|---------------------| 
B|--1-------1---------1--|--1-------1----1------|--3------------------| 
G|--0-------0---------0--|--2-------2----0h2p0--|--0------------------| 
D|--2-------2---0h2---2--|--3-------3----3------|--0------------------| 
A|--3-------3---3-----3--|----------------------|--2-------3----------| 
E|-----------------------|----------------------|--3------------------| 
   But still the world around me         showed nothin' but sympathy. 


Transition to Chorus                                           
    Am                 G/B                C       G/B         Am 
e|------------------|------------------|-------------------|-------------------| 
B|----------1-------|----------3-------|--------1-------3--|--------1-1-1-1----| 
G|------2-----2---2-|------0-----0---0-|------0-------0----|------2---2-2-2----| 
D|----2---2-----2---|----0---0-----0---|----2-------0------|----2-----2-2-0h2--| 
A|--0---------------|--2---------------|--3-------2--------|--0-------0-0-0----| 
E|------------------|------------------|-------------------|-------------------| 
        and every........day       that I wake up to see the sun.       I thank 
                         
    Am                     G    C   G 
e|------------------|------------------|---------| 
B|--1-------1-------|------3--------3--|--3------| 
G|--2-------2-------|------0----0---0--|--0------| 
D|--2-------2-------|------0----2---0--|--0------| 
A|--0-------0-------|------2----3---2--|--2------| 
E|------------------|------3--------3--|--3------| 
  God you still think that I'm the one.  Yeah and 


Repeat Chorus 
    C            F     G          C                    F         G 
e|------------------|------------------|------------------|-------------------| 
B|--1-1----------1--|-------------1----|--1-1----------1--|------3------------| 
G|--0-0----------2--|--0----------0----|--0-0----------2--|------0------------| 
D|--2-2--0h2p0---3--|--0----------2----|--2-0h2p0------3--|------0------------| 
A|--3-3--3----------|--2----------3----|--3-3-------------|------2------------| 
E|------------------|--3---------------|------------------|------3------------| 
(1)  I, have survived more than I should.                 I pushed it as far as I 
(2)walked on the edge more  than most.         Heaven knows             I've 
         
    Am      G/B        C                  G        C   G 
e|------------------|------------------|------------------|---------| 
B|--1-------3-------|--1----------1----|------------------|---------| 
G|--2-------0-------|--0----------0----|--0--------0---0--|--0------| 
D|--2-------0-------|--2----------2----|--0--------2---0--|--0------| 
A|--0-------2-------|--3----------3----|--2--------3---2--|--2------| 
E|------------------|------------------|--3------------3--|--3------| 
(1) could.               reachin for the sky.               And I've 
(2) cut it close,                but I'm alive.                After 


Outro strumming 
    Am       G/B       C                  Am      G                         
e|------------------|------------------|------------------|---------| 
B|--1--------3------|--1--------1------|--1-------3-------|--3------| 
G|--2--------0------|--0--------0------|--2-------0-------|--0------| 
D|--2--------0------|--2--------0h2----|--2-------0-------|--0------| 
A|--0--------2------|--3--------3------|--0-------2-------|--2------| 
E|------------------|------------------|----------3-------|--3------| 
   all that I  have   done.         It's you...        that makes me 

         
    C                  F                  C                  F 
e|------------------|------------------|------------------|------------------| 
B|--1-----1------1--|--1-----1--1------|--1-----1------1--|--1-----1--1---1--| 
G|--0-----0------0--|--2-----2--0h2p0--|--0-----0------0--|--2-----2--0h2-2--| 
D|--2-----2--0h2-2--|--3-----3--3------|--2-----2--0h2-2--|--3-----3--3---3--| 
A|--3-----3--3---3--|------------------|--3-----3--3---3--|------------------| 
E|------------------|------------------|------------------|------------------| 
    the lucky one.                                                You make me 
         
    C                  F                  G        C   G 
e|------------------|------------------|--------3------3--| 
B|--1-----1------1--|--1-----1--1------|--3-----3------3--| 
G|--0-----0------0--|--2-----2--0h2p0--|--0-----0--0---0--| 
D|--2-----2--0h2-2--|--3-----3--3------|--0--------2---0--| 
A|--3-----3--3---3--|------------------|--2--------3---2--| 
E|------------------|------------------|--3------------3--|      
   the lucky one.                                         After 

    Am       G/B       C                  Am      G                         
e|------------------|------------------|------------------|---------| 
B|--1--------3------|--1--------1------|--1-------3-------|--3------| 
G|--2--------0------|--0--------0------|--2-------0-------|--0------| 
D|--2--------0------|--2--------0h2----|--2-------0-------|--0------| 
A|--0--------2------|--3--------3------|--0-------2-------|--2------| 
E|------------------|------------------|----------3-------|--3------| 
   all that I  have   done.         It's you...        that makes me 

         
    C                  F                  C                  F 
e|------------------|------------------|------------------|------------------| 
B|--1-----1------1--|--1-----1--1------|--1-----1------1--|--1-----1--1---1--| 
G|--0-----0------0--|--2-----2--0h2p0--|--0-----0------0--|--2-----2--0h2-2--| 
D|--2-----2--0h2-2--|--3-----3--3------|--2-----2--0h2-2--|--3-----3--3---3--| 
A|--3-----3--3---3--|------------------|--3-----3--3---3--|------------------| 
E|------------------|------------------|------------------|------------------| 
    the lucky one. 
         
    C                  F                  C    
e|------------------|------------------|------0-----------| 
B|--1-----1------1--|--1------1-----1--|-----1------------| 
G|--0-----0------0--|--2----2-----2----|----0-------------| 
D|--2-----2--0h2-2--|--3--3-----3------|---2--------------| 
A|--3-----3--3---3--|------------------|--3---------------| 
E|------------------|------------------|------------------|      


************************************ 

| h   Hammer On 
| p   Pull Off 

************************************ 
		  

Full key step upFull key step up
Half key step upHalf key step up
Half key step downHalf key step down
Full key step downFull key step down
hide glossary

See also:

tabs Deftones - Change tabs Velvet Revolver - Fall to pieces tabs Darkness - I Believe in a Thing Called Love tabs Lifehouse - Blind Acoustic tabs Queens Of The Stone Age - Go with the Flow tabs Black Crowes - Remedy
e-chords

Other versions:

tabs Celldweller - The Lucky One tabs Taylor Swift - The Lucky One tabs Edwin McCain - The Lucky One tabs Binary Heart - The Lucky Ones
auto scroll beats size up size down change color hide chords drawings
tab show chords e-chords YouTube Clip e-chords hide all tabs e-chords go to top tab

share